» »

/0-9/311-tabs-28.html

»

311, Borders Bass tabs (ver.2)

Artists:  A B C D E F G H I J K L M N O P Q R S T U V W X Y Z # 

Borders Bass tabs (ver.2)

311 Tabs
Rating:
0/5 (0 votes)
Borders lessons Tabs too difficult? Try these video lessons and learn fast
                Bassist: P-Nut
Tuning: B-E-A-D-G

Intro:
G|-------------------------------------------------------------------------------|
D|-------------------------------------------------------------------------------|
A|-------------------------------------------------------------------------------|
E|--5-5-0--0-5-6-7~---5-5-0--0-5-6-7~---5-5-0--0-5-6-7~---5-5-0--0-5-6-7~-5p4h5--|
B|-------------------------------------------------------------------------------|


Verse 1:
G|-------------------------------------------------|
D|-------------------------------------------------|
A|-------------------------------------------------|
E|--5-5-0--0-5-6-7~--5p4h5-5-5-0--0-5-6-7~--5p4h5--|
B|-------------------------------------------------| (x2)

G|-----------------------------------------------|
D|-----------------------------------------------|
A|-----------------------------------------------|
E|--0--5h6p5---0-5h6p5-7---0--5h6p5---0-5h6p5-7--|
B|-----------------------------------------------| (x2)


Pre-Chorus:
G|---------------------------------------|
D|---------------------------------------|
A|---------------------------------------|
E|--0-0-5h6p5-5-5-5-5-0-0-5h6p5-5-5-7-7--|
B|---------------------------------------| (x4)


Chorus:                                                        __________
G|------------------------------------------------------------|          \
D|------------------------------------------------------------|           \
A|------------------------------------------------------------|            \
E|--0-2--0-2--0-2--0-2--0-2-0-2--0-3--0-3--0-3--0-3--0-3-0-3--|             \
B|------------------------------------------------------------|              \
                                                                              (x2)
G|-------------------------------------------------------------------|       /
D|-------------------------------------------------------------------|      /
A|--------------------------------------------------------2-1-2-1----|     /
E|--0-1--0-1--0-1--0-1--0-1-0-1---0-2--0-2--0-2--0-2--0-2---------2--|    /
B|-------------------------------------------------------------------|___/


Intro:
G|------------------------------------------------------------------------------|
D|------------------------------------------------------------------------------|
A|------------------------------------------------------------------------------|
E|-5-5-0--0-5-6-7~---5-5-0--0-5-6-7~---5-5-0--0-5-6-7~---5-5-0--0-5-6-7~-5p4h5--|
B|------------------------------------------------------------------------------|


Verse 2:
G|-------------------------------------------------|
D|-------------------------------------------------|
A|-------------------------------------------------|
E|--5-5-0--0-5-6-7~--5p4h5-5-5-0--0-5-6-7~--5p4h5--|
B|-------------------------------------------------| (x2)

G|-----------------------------------------------|
D|-----------------------------------------------|
A|-----------------------------------------------|
E|--0--5h6p5---0-5h6p5-7---0--5h6p5---0-5h6p5-7--|
B|-----------------------------------------------| (x2)


Pre-Chorus:
G|---------------------------------------|
D|---------------------------------------|
A|---------------------------------------|
E|--0-0-5h6p5-5-5-5-5-0-0-5h6p5-5-5-7-7--|
B|---------------------------------------| (x4)


Chorus:                                                        __________
G|------------------------------------------------------------|          \
D|------------------------------------------------------------|           \
A|------------------------------------------------------------|            \
E|--0-2--0-2--0-2--0-2--0-2-0-2--0-3--0-3--0-3--0-3--0-3-0-3--|             \
B|------------------------------------------------------------|              \
                                                                              (x3)
G|-------------------------------------------------------------------|       /
D|-------------------------------------------------------------------|      /
A|--------------------------------------------------------2-1-2-1----|     /
E|--0-1--0-1--0-1--0-1--0-1-0-1---0-2--0-2--0-2--0-2--0-2---------2--|    /
B|-------------------------------------------------------------------|___/


Outro:
G|------------------------------------------------------|
D|------------------------------------------------------|
A|------------------------------------------------------|
E|--0-2--4-6--3-5--2-4--1-3--0-0-2--4-6--3-5--2-4--1-3--|
B|------------------------------------------------------|

G|-------------------------------------|
D|-------------------------------------|
A|----------1--------------------------|
E|--0-0-2-3---3-5-2-4-1-3-0-0-2~----2--|
B|-------------------------------------|
            

comments powered by Disqus
↑ Back to top | 311 Bass for Borders. Lyrics for acoustic guitar and electric guitar. Tablatures and chords are parodies/interpretations of the original songs. You may use it for private study, scholarship, research or language learning purposes only