» »

/0-9/311-tabs-28.html

»

311, Bomb The Town Bass tabs (ver.1)

Artists:  A B C D E F G H I J K L M N O P Q R S T U V W X Y Z # 

Bomb The Town Bass tabs (ver.1)

311 Tabs
 Rating:
4/5 (4 votes)
Bomb The Town  lessons Tabs too difficult? Try these video lessons and learn fast
1
                (1)
Riff 1
1|-------------|
2|-------------|
3|--------4/7--|
4|--1--1-------|
5|-------------|

Riff 2
1|---------|
2|---------|
3|---------|
4|--1/2/1--|
5|---------|

Riff 3
1|-----------------------------|
2|-----------------------------|
3|-----------------------------|
4|--0--0--2--0--3--2--0--2--0--|
5|-----------------------------|

Riff 4
1|-----------------|
2|-----------------|
3|-----------------|
4|--1--1--1--------|
5|-----------3--3--|

Riff 5
1|------------------|
2|------------------|
3|------------------|
4|--1---1-----1-----|
5|---------3-----3--|

Riff 6
1|-----------------------|
2|-----------------------|
3|-----------------------|
4|--0--0--0--3--0--0--0--|
5|-----------------------|

Riff 7
1|--------------------------------------|
2|--------------------------------------|
3|--------------------------------------|
4|--5--5--5--3--3--3--2--2--2--3--3--3--|
5|--------------------------------------|

Riff 8
1|--------------|
2|--------------|
3|--------------|
4|--5--3--2--3--|
5|--------------|

~*~Song Structure~*~
Riff 1 - 7 Times
Riff 2 - 1 Time
Riff 1 - 8 Times
Riff 3 - 4 Times
Riff 1 - 8 Times
Riff 3 - 4 Times
Riff 4 - 7 Times
Riff 5- 1 Time
Riff 6 - 1 Time
Riff 7 - 1 Time
Riff 6 - 1 Time
Riff 8 - 1 Time
Riff 6 - 1 Time
Riff 7 - 1 Time
Riff 6 - 1 Time
Riff 8 - 1 Time
Riff 1 - 7 Times
Riff 2 - 1 Time
Riff 1 - 8 Times
Riff 3 - 4 Times
Riff 3 - 4 Times
Riff 1 - 8 Times
Riff 4 - 7 Times
Riff 5- 1 Time
Riff 6 - 1 Time
Riff 7 - 1 Time
Riff 6 - 1 Time
Riff 8 - 1 Time
Riff 6 - 1 Time
Riff 7 - 1 Time
Riff 6 - 1 Time
Riff 8 - 1 Time
Riff 3 - 1 Time
Riff 7 - 1 Time
Riff 3 - 1 Time
Riff 7 - 1 Time
Riff 3 - 1 Time
Riff 7 - 1 Time
Riff 3 - 1 Time
Riff 7 - 1 Time
            
Submit corrections

comments powered by Disqus
↑ Back to top | 311 Bass for Bomb The Town. Lyrics for acoustic guitar and electric guitar. 1 Tablatures and chords are parodies/interpretations of the original songs. You may use it for private study, scholarship, research or language learning purposes only