» »

/0-9/311-tabs-28.html

»

Beyond The Grey Sky Bass tabs (ver.2)

Artists:  A B C D E F G H I J K L M N O P Q R S T U V W X Y Z # 

Beyond The Grey Sky Bass tabs (ver.2)

311
Rating:
0/5 (0 votes)

Hard to play? Try these video lessons and learn fast.
                INTRO/VERSE
G-------6------------------
D----4H6-------------------
A---------4--4-4--4H2------
E--------------------------
B--------------------------
LOW PART/ CHORUS 
G-----------------------------
D-----------------------------
A-----------------------------
E-----------------------------
B--2-2-2---0-0-0-0-0-0-0-0-0-0

2ND VERSE
G----------------------------------
D----------------------------------
A----------------------------------
E------1-2-4-2-1-------1-2-1--------
B--2-4-----------4-2-4-------4-2-4-2-

ENDING
G---------------------------------
D---------------------------------
A---------------------------------
E--0-0-0-2-2-2P0--------0--------0
B----------------2--2-2---2--2-2---2
            
Hard to play? Try these video lessons and learn fast. | Correct




comments powered by Disqus
↑ Back to top | Tablatures and chords are parodies/interpretations of the original songs. You may use it for private study, scholarship, research or language learning purposes only