» »

/0-9/311-tabs-28.html

»

311, Beyond The Grey Sky Bass tabs (ver.1)

Artists:  A B C D E F G H I J K L M N O P Q R S T U V W X Y Z # 

Beyond The Grey Sky Bass tabs (ver.1)

311 Tabs
 Rating:
4/5 (4 votes)
Beyond The Grey Sky lessons Tabs too difficult? Try these video lessons and learn fast
                
Tuning: Standard (B E A D G)


Intro/Verse:

G|----------------------------------||
D|--4h6---------15--15--13----------||
A|------4-------16--16--14----------||
E|----------------------------------||
B|----------------------------------||

Verse:

G|----------------------------------||
D|----------------------------------||
A|----------------------------------||
E|----------------------------------||
B|---2---2----0-0-0-0-0-0-0-0-------||

Instrumental Break:

G|--------------||
D|-15--15--13---||
A|-16--16--14---||
E|--------------|| x1
B|--------------||

G|----------------------------------||
D|--4h6---------15--15--13----------||
A|------4-------16--16--14----------||
E|----------------------------------||
B|----------------------------------||


Pre-chorus (not too sure bout this part):

G|-------------------------------------------------------------------||
D|-------------------------------------------------------------------||
A|-------------------------------------------------------------------||
E|-----1--2--5--5-5--2--1-----------1--2--5--5--2--1-----------------||
B|--2----------------------4-4---2--------------------4--------------||


Chorus:

G|----------------------------------||
D|----------------------------------||
A|----------------------------------||
E|----------------------------------||
B|-2-2-2---2--2---0-------0-0-0-0---||


Bridge:

G|--------------------------------------------------||
D|--------------------------------------------------||
A|--------------------------------------------------||
E|--0---0---2-2--2--0------------0-----0------------||
B|----------------------2---2-------2-----2---------||

Outro:

G|--------------------------||
D|--------------------------||
A|--------------------------||
E|--0-----2---0--0----------||
B|-------------------2------||
            
Submit corrections

comments powered by Disqus
↑ Back to top | 311 Bass for Beyond The Grey Sky. Lyrics for acoustic guitar and electric guitar. Tablatures and chords are parodies/interpretations of the original songs. You may use it for private study, scholarship, research or language learning purposes only