» »

/0-9/311-tabs-28.html

»

311, Beautiful Disaster Tabs (ver.4)

Artists:  A B C D E F G H I J K L M N O P Q R S T U V W X Y Z # 

Beautiful Disaster Tabs (ver.4)

311 Tabs
Rating:
0/5 (0 votes)
Beautiful Disaster lessons Tabs too difficult? Try these video lessons and learn fast
                Intro:
e----------------------------------------------------------|
B----------------------------------------------------------|
G----------------------------------------------------------|
D----------------------------------------------------------|
A--2 -0 -2-----------x7--2------2--------------------------|
E-------- 3-2-3-2-3-------3-2-3----------------------------|

e-2--222-3-2-0-2-0---------------0-0-0-2-0-x2---------------|
B---------------------3--33-33------------------------------|
G-----------------------------------------------------------|
D-----------------------------------------------------------|
A-----------------------------------------------------------|
E-----------------------------------------------------------|

e-3-5-7-5-3-5-7-5-3-5-7-5-3-2-------------0-2-0-----0-0-0-2-0----|
B-------------------------------3--33-33-------------------------|
G----------------------------------------------------------------|
D----------------------------------------------------------------|
A----------------------------------------------------------------|
E----------------------------------------------------------------|


Riff 3:

      Bm     G        Em     F#
e--2--2-----3--3-----0--0----2--2-------x2--------------|
B--3--3-----3--3-----0--0----2--2-----------------------|
G--4--4-----4--4-----0--0----3--3-----------------------|
D-------------------------------------------------------|
A-------------------------------------------------------|
E-------------------------------------------------------|

Riff 4: (w/ heavy distortion) x2
-----------------------------------------------------------------|
e----------------------------------------------------------------|
B----------------------------------------------------------------|
G----------------------------------------------------------------|
D--4--4-4--2-2---------------------------------------------------|
A--2--2-2--0-0--5---5---5--5--5---2---2--2--2--2----4--4-4-4-4---|
E---------------3---3---3--3--3---3---0--0--0--0----2--2-2-2-2---|


e------------------------------------------------------------|
B------------------------------------------------------------|
G------------------------------------------------------------|
D------------------------------------------------------------|
A--2-0-2-------------x3--2--------2--------------------------|
E---------3-2-3-2-3-------3-2-3------------------------------|




Riff 3:

     Bm      G        Em       F#
e--2--2-----3--3-----0--0----2--2-----------------------|
B--3--3-----3--3-----0--0----2--2-----------------------|
G--4--4-----4--4-----0--0----3--3-----------------------|
D-------------------------------------------------------|
A-------------------------------------------------------|
E-------------------------------------------------------|


Riff 4: (w/ heavy distortion) x2
-------------------------------------------------------------------|
e------------------------------------------------------------------|
B------------------------------------------------------------------|
G------------------------------------------------------------------|
D--4--4-4--2-2-----------------------------------------------------|
A--2--2-2--0-0--5---5----5--5--5---2---2--2--2--2----4--4--4-4-4---|
E-------------------3--- 3--3--3---3---0--0--0--0--0-2--2--2-2-2---|


e------------------------------------------------------------|
B------------------------------------------------------------|
G------------------------------------------------------------|
D------------------------------------------------------------|
A--2-0-2-------------x3--2--------2--------------------------|
E---------3-2-3-2-3-------3-2-3------------------------------|

Riff 5a: (w/ heavy distortion)
--------

e----------------------------------------------------------|
B----------------------------------------------------------|
G----------------------------------------------------------|
D--2--2--2---6--6--6---4--4--4---4--4--4-------------------|
A--2--2--2---4--4--4---4--4--4---2--2--2-------------------|
E--0--0--0---4--4--4---2--2--2---2--2--2-------------------|

Riff 5b: (w/ heavy distortion)
--------------------------------------------------------------------|
e-------------------------------------------------------------------|
B-------------------------------------------------------------------|
G-------------------------------------------------------------------|
D--2--2---2---2----6--6---6---6----4--4---4---4-----4--4---4---4----|
A--2--2---2---2----4--4---4---4----4--4---4---4-----2--2---2---2----|
E--0--0---0---0----4--4---4---4----2--2---2---2-----2--2---2---2----|





Riff 5c: (w/ Heavy distortion, palm muffling the sound a bit)
--------------------------------------------------------------------------|
e-------------------------------------------------------------------------|
B-------------------------------------------------------------------------|
G-------------------------------------------------------------------------|
D-2-2-2-2-2-2-2-2---6-6-6-6-6-6-6-6---4-4-4-4-4-4-4-4---4-4-4-4-4-4-4-4---|
A-2-2-2-2-2-2-2-2---4-4-4-4-4-4-4-4---4-4-4-4-4-4-4-4---2-2-2-2-2-2-2-2---|
E-0-0-0-0-0-0-0-0---4-4-4-4-4-4-4-4---2-2-2-2-2-2-2-2---2-2-2-2-2-2-2-2---|




Riff 6: (w/ heavy distortion)
----------------------------------------------------------------|
e---------------------------------------------------------------|
B---------------------------------------------------------------|
G---------------------------------------------------------------|
D--2--2--2-------2----2-----------------------------------------|
A--2--2--2-------2----2-----------------------------------------|
E--0--0--0--3s-12---0---0---3s12---0---3s12-0-------------------|

Solo
------------------------------------------------------------|
e-2--222-3-2-0-2-0--------------0-0-0-2-0-x2----------------|
B---------------------3--33-33------------------------------|
G-----------------------------------------------------------|
D-----------------------------------------------------------|
A-----------------------------------------------------------|
E-----------------------------------------------------------|

e-----------------------------------------------------------------------------|
B-----------------------------------------------------------------------------|
G--7--9--11----12--14--16----14--16--18--16--18--19--18--19-------------------|
D-----------------------------------------------------------------------------|
A-----------------------------------------------------------------------------|
E-----------------------------------------------------------------------------|

e---------------------------------------------------------------------|
B--20--19--17--17--15---15--14--15---14--12--14---12--10--12--10--7---|
G---------------------------------------------------------------------|
D---------------------------------------------------------------------|
A---------------------------------------------------------------------|
E---------------------------------------------------------------------|


Riff 3:

    Bm        G       Em      F#
e--2--2-----3--3-----0--0----2--2------x2---------------|
B--3--3-----3--3-----0--0----2--2-----------------------|
G--4--4-----4--4-----0--0----3--3-----------------------|
D-------------------------------------------------------|
A-------------------------------------------------------|
E-------------------------------------------------------|

Riff 4: (w/ heavy distortion) x2
-----------------------------------------------------------------|
e----------------------------------------------------------------|
B----------------------------------------------------------------|
G----------------------------------------------------------------|
D--4--4-4--2-2---------------------------------------------------|
A--2--2-2--0-0--5---5---5--5--5---2---2--2--2--2----4--4-4-4-4---|
E---------------3---3---3--3--3---3---0--0--0--0----2--2-2-2-2---|


e------------------------------------------------------------|
B------------------------------------------------------------|
G------------------------------------------------------------|
D------------------------------------------------------------|
A--2-0-2-------------x3--2--------2--------------------------|
E---------3-2-3-2-3--------3-2-3-----------------------------|

Riff 5a: (w/ heavy distortion)
--------

e----------------------------------------------------------|
B-----------------------------------------x2---------------|
G----------------------------------------------------------|
D--2--2--2---6--6--6---4--4--4---4--4--4-------------------|
A--2--2--2---4--4--4---4--4--4---2--2--2-------------------|
E--0--0--0---4--4--4---2--2--2---2--2--2-------------------|

Riff 5b: (w/ heavy distortion)
--------------------------------------------------------------------|
e-------------------------------------------------------------------|
B-------------------------------------------------------------------|
G-------------------------------------------------------------------|
D--2--2---2---2----6--6---6---6----4--4---4---4-----4--4---4---4----|
A--2--2---2---2----4--4---4---4----4--4---4---4-----2--2---2---2----|
E--0--0---0---0----4--4---4---4----2--2---2---2-----2--2---2---2----|



Riff 5c: (w/ Heavy distortion, palm muffling the sound a bit)
--------------------------------------------------------------------------|
e-------------------------------------------------------------------------|
B-------------------------------------------------------------------------|
G-------------------------------------------------------------------------|
D-2-2-2-2-2-2-2-2---6-6-6-6-6-6-6-6---4-4-4-4-4-4-4-4---4-4-4-4-4-4-4-4---|
A-2-2-2-2-2-2-2-2---4-4-4-4-4-4-4-4---4-4-4-4-4-4-4-4---2-2-2-2-2-2-2-2---|
E-0-0-0-0-0-0-0-0---4-4-4-4-4-4-4-4---2-2-2-2-2-2-2-2---2-2-2-2-2-2-2-2---|



Riff 6: (w/ heavy distortion)
------------------------------------------------------------------|
e-----------------------------------------------------------------|
B-----------------------------------------------------------------|
G-----------------------------------------------------------------|
D--2--2--2-------2----2---------------------------2--2--2---------|
A--2--2--2-------2----2-----------------------x3--2--2--2---------|
E--0--0--0--3s-12---0---0---3s12---0---3s12-0-----0--0--0---------|
            
Submit corrections

comments powered by Disqus
↑ Back to top | 311 Tabs for Beautiful Disaster. Lyrics for acoustic guitar and electric guitar. Tablatures and chords are parodies/interpretations of the original songs. You may use it for private study, scholarship, research or language learning purposes only