» »

/0-9/311-tabs-28.html

»

311, Amber Tabs (ver.6)

Artists:  A B C D E F G H I J K L M N O P Q R S T U V W X Y Z # 

Amber Tabs (ver.6)

311 Tabs
Rating:
5/5 (2 votes)
Amber lessons Tabs too difficult? Try these video lessons and learn fast
                '311'
performed by 311
music by miT mahoney,nick hexum,chad sexton,p-nut,sa
tuning (EADGBe)
===============
I wasnt happy with the other ones,so I decided to tab
it out myself,here it is.I'm 100% about this one.Please rate!!
==============================================================
Main riff
=========
1|-----------------------------------------|
2|-------------------5---------------------|
3|--------4--------5---5--------4------4---|
4|--2-3-5---5--5-7--------0-2-5---5--5---5-|
5|-----------------------------------------|
6|-----------------------------------------|

Ska strokes
==========
1|-8-8--5-5--3-3-3-3----1-1-1-1--3-3-3-3--------|
2|-8-8--5-5--5-5-5-5-x2-3-3-3-3--3-3-3-3--------|
3|-9-9--5-5--4-4-4-4----2-2-2-2--4-4-4-4--------|
4|----------------------------------------------|
5|----------------------------------------------|
6|----------------------------------------------|

Solo 1
=========
1|----------10-12-10----10/7-7--10-10--------------10-12-10---|
2|-12h13-13----------13--------12-12-12--12h13-13-------------|
3|-----------------------------------12-----------------------|
4|------------------------------------------------------------|
5|------------------------------------------------------------|
6|------------------------------------------------------------|

1|-----10/7-7---7-10-7-7-----|
2|--13-----------------------|
3|---------------------------|
4|---------------------------|
5|---------------------------|
6|---------------------------|

1|---------------------------------------------3~--0~--|
2|---------------------------------------------3~--1~--|
3|--2-4-5-4-2-2/4-4-5-7-5-4-4s5-5-7--9-7-5-4---4~--0~--|
4|--3-5-7-5-3-3/5-5-7-9-7-5-5h7-7-9-10-9-7-5---5~--2~--|
5|-----------------------------------------------------|
6|-----------------------------------------------------|

1|-0--0--0--0--3--------------0--------------3~-0~--|
2|-1--0--1--0--0------0------0------0----0---3~-1~--|
3|-2--0--2--0--0-----0------0------0----0----4~-0~--|
4|-2--2--2--2--x----3------2------3----2-----5~-2~--|
5|-0--2--0--2--2---3------2------3----2-------------|
6|----0-----0--3--1------0------1----0--------------|


solo 2
=======
1|----------------------------------------|
2|--6-5-6-5-pause-8-6-5-6-5--5-6-5-8-6-5--|
3|----------------------------------------|
4|----------------------------------------|
5|----------------------------------------|
6|----------------------------------------|

1|--------5-7-8-10-10/12~---------------|
2|--5-6-8-------------------------------|
3|--------------------------------------|
4|--------------------------------------|
5|--------------------------------------|
6|--------------------------------------|

bass line
========
1|----------------------------------|
2|----------------------------------|
3|----------------------------------|
4|----------------------------------|
5|---3-33-3-3-----------------------|
6|------------5-5-5-0-00-0-0--0-3-0-|
            
Submit corrections

comments powered by Disqus
↑ Back to top | 311 Tabs for Amber. Lyrics for acoustic guitar and electric guitar. Tablatures and chords are parodies/interpretations of the original songs. You may use it for private study, scholarship, research or language learning purposes only