» »

/0-9/311-tabs-28.html

»

311, Amber Tabs (ver.4)

Artists:  A B C D E F G H I J K L M N O P Q R S T U V W X Y Z # 

Amber Tabs (ver.4)

311 Tabs
Rating:
3.8/5 (33 votes)
Amber lessons Tabs too difficult? Try these video lessons and learn fast
                Band: 311


Intro:
G.1
E|----------------0--------------------|
B|---------------1-1-------------------|
G|----0-4-0---0-2--------0-4-0--0-4-0--|
D|-2-3----------------2-3--------------|
A|-------------------------------------|
E|-------------------------------------|


G.2 (let ring)
E|-7-|
B|-8-|
G|-9-|
D|---|
A|---|
E|---|

Verse1:
G.1
E|----------------0--------------------|
B|---------------1-1-------------------|
G|----0-4-0---0-2---------0-4-0--0-4-0-|
D|-2-3----------------2-3--------------|
A|-------------------------------------|
E|-------------------------------------|

Chorus1:
G.1
E|----------------0--------------------|
B|---------------1-1-------------------|
G|----0-4-0---0-2---------0-4-0--0-4-0-|
D|-2-3----------------2-3--------------|
A|-------------------------------------|
E|-------------------------------------|

G.2
E|-8-8-5-5-3-3-3-3-|
B|-5-5-5-5-5-5-5-5-|
G|-5-5-5-5-5-5-5-5-|
D|-----------------|
A|-----------------|

Verse2:
G.1
E|---------------------------|
B|---------0-1-3-------0-1-3-|
G|------0-2---------0-2------|
D|---2-3---------2-3---------|
A|---------------------------|
E|---------------------------|

G.2
E|-1-1-1-1-3-3-3-3-|
B|-3-3-3-3-3-3-3-3-|
G|-4-4-4-4-4-4-4-4-|
D|-----------------|
A|-----------------|
E|-----------------|

Solo 1:
G.1
E|-7/8-8-10-12-10-8-10\9-7--7-7-3-|
B|--------------------------8-8-3-|
G|--------------------------------|
D|--------------------------------|
A|--------------------------------|
E|--------------------------------|

E|-7/8-8-10-12-10-8-10\9-7--7-10-7-7-8-|
B|-------------------------------------|
G|-------------------------------------|
D|-------------------------------------|
A|-------------------------------------|
E|-------------------------------------|

Solo 2:
G.1
E|---------------------------|
B|---------0-1-3-------0-1-3-|
G|------0-2---------0-2------|
D|---2-3---------2-3---------|
A|---------------------------|
E|---------------------------|

G.2
E|---------------------------------------------|
B|-------------------------------------------5-|
G|-2-4-5-4-2-4--4-5-7-5-4-5--5-7--9-7-5-4--4-5-|
D|-3-5-7-5-3-5--3-7-9-7-3-7--7-9-10-9-7-5--3-5-|
A|---------------------------------------------|
E|---------------------------------------------|

Riff A:
G.1
E|-8-10-12-8-10-12-15-12-10-8\5-|
B|-8-10-12----------------------|
G|-9-10-12----------------------|
D|------------------------------|
A|------------------------------|
E|------------------------------|

Verse3:
G.2
E|-0-0-0-0-3-----0-------0-----0-------0-3-3-|
B|-1-3-1-3-3----1------3------1------3---3-3-|
G|-2-4-2-4-0---2------4------2------4----0-0-|
D|-2-2-2-2-2--2------2------2------2-----2---|
A|-0-2-0-2-2-0------2------0------2------2---|
E|-----------------0-------------0-----------|

Chorus2:
G.1
E|-------------------5-8-10-12-|
B|-----------2-3-5-8-----------|
G|-----------------------------|
D|-----------------------------|
A|-----------------------------|
E|-----------------------------|

G.2
E|-8-8-5-5-3-3-3-3-|
B|-5-5-5-5-5-5-5-5-|
G|-5-5-5-5-5-5-5-5-|
D|-----------------|
A|-----------------|

Order:
Intro
Verse1
Chorus1
Verse2
Chorus1
Solo1
Solo2
Chorus1
Riff A
Verse3
Chorus1
Verse2
Chorus2
            

comments powered by Disqus
↑ Back to top | 311 Tabs for Amber. Lyrics for acoustic guitar and electric guitar. Tablatures and chords are parodies/interpretations of the original songs. You may use it for private study, scholarship, research or language learning purposes only