» »

/0-9/311-tabs-28.html

»

311, All Mixed Up Bass tabs (ver.2)

Artists:  A B C D E F G H I J K L M N O P Q R S T U V W X Y Z # 

All Mixed Up Bass tabs (ver.2)

311 Tabs
 Rating:
4/5 (4 votes)
All Mixed Up lessons Tabs too difficult? Try these video lessons and learn fast
1
                (4String)
This is the 4-string version of 311's "all mixed up"
It is taken from the 5 star 5-string version and made into the 4 string
Its not completely correct but i did the best i could
Standard tuning E,A,D,G


Intro
|------------|------------------------|-------------|-----------------------|
|------------|------------------------|-------------|-----------------------|
|--4----5----|------------------------|-------------|------------------5----|
|------------|-6-6---6--4-6--4-6--4---|-7---8-------|---9-10--11-----5-6----|

|------------|---------------------|-----------|----------------------------|
|------------|---------------------|-----------|----------------------------|
|--12----13--|-11-11----9----9----9|--12---13--|----------------------------|
|------------|-------11---11---11--|-----------|-x-6-x-9--10---11--5-6-- 0--|


Verses
|-----------|------------------|--------|----------------------------|
|-----------|------------------|--------|----------------------------|
|--12---13--|-11-11----9--9--9-|-12--13-|-----------------------10---|
|-----------|-------11--11-11--|--------|-x-6-x-9--10---11----10----11|

Pre-Choruses
|---------------------------|
|---------------------------|
|---------------------------| x4
|-6-6-6---0h1-4-4-4-4-4-4-4-|

Chorus
|------------------------------| 
|------------------------------|
|------------------------------| x2
|-6-6-6-6-6--0h1-4-4-4-4-4-4-4-|

|---------------------------|------------------------------| 
|---------------------------|------------------------------|
|---------------------------|------------------------------| 
|-6-6-6---0h1-4-4-4-4-4-4-4-|-6-6-6-6-6--0h1-4-4-4-4-4-4-4-|


Interlude
|----------------------------------|
|----------------------------------|
|-----------8/11-11-11-11-11-11-11-| x2
|-6---6---6------------------------|

|--------------------------------|
|--------------------------------|
|-----------8/11----8/11----8/11-|
|-6---6---6-------6-------6------|

|-------------------------|
|-------------------------|
|-------------------------| x2
|-6--6--0h1-4-4-4-4-4-4-4-|

Bridge
|-------------|
|-------------|
|-------------|
|-6---6-4---4-|


|----------------------------|
|----------------------------|
|----------------------------| x3
|-6--6-6---0h1-4-4-4-4-4-4-4-|


|-----------------------------|---------------------|
|-----------------------------|---------------------|
|-----------------------------|---------------------|
|-6-6-6-6-6-0h1-4-4-4-4-4-4-4-|-6-------------------|
            
Submit corrections

comments powered by Disqus
↑ Back to top | 311 Bass for All Mixed Up. Lyrics for acoustic guitar and electric guitar. 1 Tablatures and chords are parodies/interpretations of the original songs. You may use it for private study, scholarship, research or language learning purposes only