» »

/0-9/311-tabs-28.html

»

311, All Mixed Up Bass tabs (ver.4)

Artists:  A B C D E F G H I J K L M N O P Q R S T U V W X Y Z # 

All Mixed Up Bass tabs (ver.4)

311 Tabs
 Rating:
4/5 (4 votes)
All Mixed Up lessons Tabs too difficult? Try these video lessons and learn fast
1
                
ALL MIXED UP (Bassline)
As recorded by 311
(From the 1996 Album GRASSROOTS)



Words and Music by S. A. Martinez and Nick Hexum

Gtr I (B E A D G) - 'Bass'

 A
  Q=93
 4/4
  Gtr I
  H    H      E E E. S S S S S Q    H    H      E E S E E E E E S
|-----------|---------------------|-----------|--------------------|
|-----------|---------------------|-----------|--------------------|
|-4----5----|---------------------|-----------|-----------------5--|
|-----------|-6-6------4---4---4--|-----------|-x-6-x-------5-6----|
|-----------|--------6---6---6----|-2----3----|-------4-5-6--------|


                                                 1.,2.
    H    H      E E E. S S S S S Q    H    H      E E S E E E E E S
||------------|---------------------|-----------|---------------------||
||o-----------|---------------------|-----------|--------------------o||
||--4----5----|---------------------|-----------|-----------------5---||
||o-----------|-6-6------4---4---4--|-----------|-x-6-x-------5-6----o||
||------------|--------6---6---6----|-2----3----|-------4-5-6---------||


                      B
  3.
  E E S E E E E E S    E E E S S S S S S S S S S
|-------------------||---------------------------|
|-------------------||---------------------------|
|-----------------5-||-1---1---------------------|
|-x-6-x-------5-6---||---------0s1-4-4-4-4-4-4-4-|
|-------4-5-6-------||---------------------------|


    E E E S S S S S S S S S S  15x
||------------------------------||
||o----------------------------o||
||--1---1-----------------------||
||o---------0s1-4-4-4-4-4-4-4--o||
||------------------------------||


 C
  H    H      E E E. S S S S S Q    H    H      E E S E E E E E S
|-----------|---------------------|-----------|-------------------|
|-----------|---------------------|-----------|-------------------|
|-4----5----|---------------------|-----------|-----------------5-|
|-----------|-6-6------4---4---4--|-----------|-x-6-x-------5-6---|
|-----------|--------6---6---6----|-2----3----|-------4-5-6-------|


  H    H      E E E. S S S S S Q    H    H      E E S E E E E E S
|-----------|---------------------|-----------|-------------------||
|-----------|---------------------|-----------|-------------------||
|-4----5----|---------------------|-----------|-----------------5-||
|-----------|-6-6------4---4---4--|-----------|-x-6-x-------5-6---||
|-----------|--------6---6---6----|-2----3----|-------4-5-6-------||


 D
  E E E S S S S S S S S S S     E E E S S S S S S S S S S
|---------------------------||-----------------------------||
|---------------------------||o---------------------------o||
|-1---1---------------------||--1---1----------------------||
|---------0s1-4-4-4-4-4-4-4-||o---------0s1-4-4-4-4-4-4-4-o||
|---------------------------||-----------------------------||


  E E E S S S S S S S S S S   E E E S S S S S S S S S S
|---------------------------|------------------------------|
|---------------------------|------------------------------|
|-1---1---------------------|-1---1------------------------|
|---------0s1-4-4-4-4-4-4-4-|---------0s1-4-4-4-4-4-4-4----|
|---------------------------|------------------------------|


  E E E S S S S S S S S S S   E E E S S S S S S S S S S
|---------------------------|---------------------------|
|---------------------------|---------------------------|
|-1---1---------------------|-1---1---------------------|
|---------0s1-4-4-4-4-4-4-4-|---------0s1-4-4-4-4-4-4-4-|
|---------------------------|---------------------------|


  E E E S S S S S S S S S S   E E E S S S S S S S S S S
|---------------------------|------------------------------||
|---------------------------|------------------------------||
|-1---1---------------------|-1---1------------------------||
|---------0s1-4-4-4-4-4-4-4-|---------0s1-4-4-4-4-4-4-4----||
|---------------------------|------------------------------||


 E
  E E E S S S  S  S  S  S  S  S  S
|----------------------------------|
|----------------------------------|
|-----------8s11-11-11-11-11-11-11-|
|-6---6---6------------------------|
|----------------------------------|


    E E E S S S  S  S  S  S  S  S  S     E S S S S S  S S S S  S S S S  S
||------------------------------------||----------------------------------|
||o----------------------------------o||----------------------------------|
||------------8s11-11-11-11-11-11-11--||-----------8-11-----8-11-----8-11-|
||o-6---6---6------------------------o||-6---6---6--------6--------6------|
||------------------------------------||----------------------------------|


    E E E S S S  S  S  S  S  S  S  S  3x
||------------------------------------||
||o----------------------------------o||
||------------8s11-11-11-11-11-11-11--||
||o-6---6---6------------------------o||
||------------------------------------||


  E E E S S S S S S S S S S     e Q  e e Q  e   4x
|---------------------------||------------------||
|---------------------------||o----------------o||
|---------------------------||------------------||
|-6---6---6-4-4-4-4-4-4-4-4-||o-6----6-4----4--o||
|---------------------------||------------------||


 F
  E E E S S S S S S S S S S     E E E S S S S S S S S S S  3x
|---------------------------||-----------------------------||
|---------------------------||o---------------------------o||
|-1---1---------------------||--1---1----------------------||
|---------0s1-4-4-4-4-4-4-4-||o---------0s1-4-4-4-4-4-4-4-o||
|---------------------------||-----------------------------||


  E E E S S S S S S S S S S
|-----------------------------|
|-----------------------------|
|-1---1-----------------------|
|---------0s1-4-4-4-4-4-4-4---|
|-----------------------------|


  E E E S S S S S S S S S S   E E E S S S S S S S S S S   E H..
|---------------------------|---------------------------|----------*|
|---------------------------|---------------------------|----------*|
|-1---1---------------------|-1---1---------------------|-1--------*|
|---------0s1-4-4-4-4-4-4-4-|---------0s1-4-4-4-4-4-4-4-|----------*|
|---------------------------|---------------------------|----------*|

Duration Legend
---------------
W - whole; H - half; Q - quarter; E - 8th; S - 16th; T - 32nd; X - 64th; a - acciaccatura
+ - note tied to previous; . - note dotted; .. - note double dotted
Uncapitalized letters represent notes that are staccato (1/2 duration)
Irregular groupings are notated above the duration line
Duration letters will always appear directly above the note/fret number it represents the
duration for.  Duration letters with no fret number below them represent rests.  Multi-
bar rests are notated in the form Wxn, where n is the number of bars to rest for.  Low
melody durations appear below the staff

Tablature Legend
----------------
 h   - hammer-on
 p   - pull-off
 b   - bend
 pb  - pre-bend
 r   - bend release (if no number after the r, then release immediately)
 /\  - slide into or out of (from/to "nowhere")
 s   - legato slide
 S   - shift slide
 - natural harmonic
[n]  - artificial harmonic
n(n) - tapped harmonic
 ~   - vibrato
 tr  - trill
 T   - tap
 TP  - trem. picking
 PM  - palm muting
\n/  - tremolo bar dip; n = amount to dip
 \n  - tremolo bar down
 n/  - tremolo bar up
/n\  - tremolo bar inverted dip
 =   - hold bend; also acts as connecting device for hammers/pulls
 <> - volume swell (louder/softer)
 x   - on rhythm slash represents muted slash
 o   - on rhythm slash represents single note slash

Misc Legend
-----------
 |  - bar
||  - double bar
||o - repeat start
o|| - repeat end
*|  - double bar (ending)
 :  - bar (freetime)
 $  - Segno
 &  - Coda
Tempo markers -  = BPM(8/16=s8/s16), where s8 = swing 8ths, s16 = swing 16ths
            
Submit corrections

comments powered by Disqus
↑ Back to top | 311 Bass for All Mixed Up. Lyrics for acoustic guitar and electric guitar. 1 Tablatures and chords are parodies/interpretations of the original songs. You may use it for private study, scholarship, research or language learning purposes only