» »

/0-9/311-tabs-28.html

»

8-16 A.M Bass tabs (ver.1)

Artists:  A B C D E F G H I J K L M N O P Q R S T U V W X Y Z # 

8-16 A.M Bass tabs (ver.1)

311
Rating:
0/5 (0 votes)

Hard to play? Try these video lessons and learn fast.
                Bassist: P-Nut
Tuning: B-E-A-D-G


Intro:                                                   This is tough
G|---------------------------------------------------------x----x----0--|
D|------0-2------------------------------0-2----------------------------|
A|--2-2----------------------0h2-3-3-2-2--------------------------------|
E|------------0~--2-3-5-3-2--------------------0~--2-3--0-x-x0-x-x0-x---|
B|----------------------------------------------------------------------|
                                                        S SPSS SPSS SP

G|----------------------------------------------------------------|
D|------0-2------------------------------0-2----------------------|
A|--2-2----------------------0h2-3-3-2-2--------------------------|
E|------------0~--2-3-5-3-2--------------------0~--2-3---3-3-2-2--|
B|----------------------------------------------------------------|


Verse 1:
G|-------------------------------------------------------------------------|
D|-------------------------------------------------------------------------|
A|------------3-x-5----------3-x-5------------5-x-7----------5-x-7--9-7----|
E|-0--0~--3-5--------0~--3-5--------------5-7------------5-7------------9--|
B|---------------------------------3--7~-------------7~--------------------| (x2)

G|----------------------------------------------------------------------|
D|----------------------------------------------------------------------|
A|----------------------------------------------------------------------|
E|------3-5-3------------3-5-3------------5-7-5------------5-7-5--------|
B|--3h5-------5-3-5--3h5-------5-3-5--5h7-------7-5-7--5h7-------7-5-7--|

G|----------------------------------------------------------------------|
D|----------------------------------------------------------------------|
A|----------------------------------------------------------------------|
E|------3-5-3------------3-5-3---------------5-7-5---------------5-7-5--|
B|--3h5-------3--5---3h5-------3h5-3--5--5h7-------5h7-5--7--5h7--------|


Chorus:
G|---------|
D|--5------|
A|----7-4--|
E|---------|
B|---------|

G|-------------------------------------------------------------------------|
D|-----7-----------7---7-7--7------------2--4--2--0-2---5--5-5--5-3-0-0-2--|
A|--0-----4-4-5-7----0---------4-5-7---------------------------------------|
E|------------------------------------3---------------3--------------------|
B|-------------------------------------------------------------------------| (x4)

G|-----------------------------------------------------------------|
D|-----7-----------7---7-7--7------------2--4--2--0-2---5--5-5--5--|
A|--0-----4-4-5-7----0---------4-5-7-------------------------------|
E|------------------------------------3---------------3------------|
B|-----------------------------------------------------------------|


Verse 2:
G|---------------------------------------------------------x----x----0--|
D|------0-2------------------------------0-2----------------------------|
A|--2-2----------------------0h2-3-3-2-2--------------------------------|
E|------------0~--2-3-5-3-2--------------------0~--2-3--0-x-x0-x-x0-x---|
B|----------------------------------------------------------------------|
                                                        S SPSS SPSS SP

G|----------------------------------------------------------------|
D|------0-2------------------------------0-2----------------------|
A|--2-2----------------------0h2-3-3-2-2--------------------------|
E|------------0~--2-3-5-3-2--------------------0~--2-3---3-3-2-2--|
B|----------------------------------------------------------------|

G|-------------------------------------------------------------------------|
D|-------------------------------------------------------------------------|
A|------------3-x-5----------3-x-5------------5-x-7----------5-x-7--9-7----|
E|-0--0~--3-5--------0~--3-5--------------5-7------------5-7------------9--|
B|---------------------------------3--7~-------------7~--------------------|

G|----------------------------------------------------------------|
D|----------------------------------------------------------------|
A|----------------------------------------------------------------|
E|------3-5-3------------3-5-3------------5-7-5------------5-7-5--|
B|--3h5-------5-3-5--3h5-------5-3-5--5h7-------7-5-7--5h7--------|


Chorus:
G|---------|
D|--5------|
A|----7-4--|
E|---------|
B|---------|

G|-------------------------------------------------------------------------|
D|-----7-----------7---7-7--7------------2--4--2--0-2---5--5-5--5-3-0-0-2--|
A|--0-----4-4-5-7----0---------4-5-7---------------------------------------|
E|------------------------------------3---------------3--------------------|
B|-------------------------------------------------------------------------| (x4)

G|-----------------------------------------------------------------|
D|-----7-----------7---7-7--7------------2--4--2--0-2---5--5-5--5--|
A|--0-----4-4-5-7----0---------4-5-7-------------------------------|
E|------------------------------------3---------------3------------|
B|-----------------------------------------------------------------|


Outro:
G|--------------------------------------------|
D|--------------------------------------------|
A|-------------------------------5-7-5--------|
E|--1~-----1-3~----3--5-5--0-5-7-------7-5-3--|
B|--------------------------------------------|

G|--------------------------------------------|
D|--------------------------------------------|
A|--------------------------------------------|
E|--1~-----1-3~----3--5-5--0-5-0-5-0-5-0-5-0--|
B|--------------------------------------------|

G|--------------------------------------------------------|
D|--------------------------------------------------------|
A|--------------------------------------------------------|
E|--1-1-1-1-1-1-1-1-3-3-3-3-3-3-3-5--5--5--5-5-5-5-5-5-5--|
B|--------------------------------------------------------|

G|---------------------|
D|---------------------|
A|---------------------|
E|--1~------3~-----5~--| <--- It sounds like there is a very low note to go 
B|---------------------|      with the A
            
Hard to play? Try these video lessons and learn fast. | Correct




comments powered by Disqus
↑ Back to top | Tablatures and chords are parodies/interpretations of the original songs. You may use it for private study, scholarship, research or language learning purposes only