» » »

This Is War Tabs (ver.1)

Artists:  A B C D E F G H I J K L M N O P Q R S T U V W X Y Z # 

This Is War Tabs (ver.1)

30 Seconds To Mars
Rating:
0/5 (0 votes)

Hard to play? Try these video lessons and learn fast.
                Pretty easy song. I'll put like musical kinda milestones so you know where to play 
each part, and enjoy =]

Tuning - Drop D (DADGBE)

Intro

Clean Delay on the guitar or you can pick the delayed notes too.
E|----------------------------------------------------------------------|
B|----------------------------------------------------------------------|
G|----------------------------------------------------------------------|
D|------8-8-------6-6-------4-4--------6-6------------------------------|
A|--6-6-----------------2-2-------4-4-----------------------------------|
D|------------4-4-------------------------------------------------------|

every first and third bar it does this                                   X6
E|----------------------------------------------------------------------|
B|----------------------------------------------------------------------|
G|------------------------------------8-8-8-8-8-------------------------|
D|------8-8-------6-6-------4-4-----------------------------------------|
A|--6-6-----------------2-2---------------------------------------------|
D|------------4-4----------------6-6------------------------------------|

Little Violin Bit Backing (Its fun to do the small fun parts lol)

E|-----------------------------|
B|-----------7--9---------7--9-|
G|----8--10--------8--10-------| ringing notes
D|-----------------------------|
A|-----------------------------|
D|-----------------------------|

Pre-Chorus (also available: violin but transposed to guitar)

E|------------------------------------------------|
B|-7-----6-----------7-----7---6------------------|
G|---6-6---6-6-6-6-6---6-6---6---6----------------|  X3
D|------------------------------------------------|
A|------------------------------------------------|
D|------------------------------------------------|

E|------------------------------------------------|
B|-7-----6-----------9-9-9-9-9-9-9-9--------------|
G|---6-6---6-6-6-6-6------------------------------|
D|------------------------------------------------|  Last Time
A|------------------------------------------------|
D|------------------------------------------------|

This Is The Violin Bit On Guitar in the background of the pre-chorus.

E|-----------------------------|
B|-----------7--9---------7--9-|
G|----8--10--------8--10-------| ringing notes
D|-----------------------------|
A|-----------------------------|
D|-----------------------------|

Chorus

E|------------------------------------------------|
B|----------14-14-14-14-14----------14-14-14-14-14|
G|-11-11-11----------------11-11-11---------------|
D|------------------------------------------------|
A|------------------------------------------------|
D|------------------------------------------------|
                               
E|------------------------------------------------|
B|----------14-14-14-14-14----------14-14-14-14-14|
G|-10-10-10----------------10-10-10---------------|
D|------------------------------------------------|
A|------------------------------------------------|
D|------------------------------------------------|
                                                      X2
E|------------------------------------------------|
B|----------14-14-14-14-14----------14-14-14-14-14|
G|------------------------------------------------|
D|-13-13-13----------------13-13-13---------------|
A|------------------------------------------------|
D|------------------------------------------------|

E|------------------------------------------------|
B|----------14-14-14-14-14----------14-14-14-14-14|
G|------------------------------------------------|
D|-11-11-11----------------11-11-11---------------|
A|------------------------------------------------|
D|------------------------------------------------|

Little Violin Bit After Chorus
E|-------------------------|
B|-------------------------|
G|-------------------------|
D|---------------------6---|
A|---6--9--6--9--6--9------|
D|-------------------------|

*Verse*

Delay on the guitar or you can pick the delayed notes too.
E|----------------------------------------------------------------------|
B|----------------------------------------------------------------------|
G|----------------------------------------------------------------------|X6
D|------8-8-------6-6-------4-4--------6-6------------------------------|
A|--6-6-----------------2-2-------4-4-----------------------------------|
D|------------4-4-------------------------------------------------------|

Occasionally does this
E|----------------------------------------------------------------------|
B|----------------------------------------------------------------------|
G|------------------------------------8-8-8-8-8-------------------------|
D|------8-8-------6-6-------4-4-----------------------------------------|
A|--6-6-----------------2-2-------4-4-----------------------------------|
D|------------4-4-------------------------------------------------------|

Pre-Chorus (also available: violin but transposed to guitar)

E|------------------------------------------------|
B|-7-----6-----------7-----7---6------------------|
G|---6-6---6-6-6-6-6---6-6---6---6----------------|  X3
D|------------------------------------------------|
A|------------------------------------------------|
D|------------------------------------------------|

E|------------------------------------------------|
B|-7-----6-----------9-9-9-9-9-9-9-9--------------|
G|---6-6---6-6-6-6-6------------------------------|
D|------------------------------------------------|  Last Time
A|------------------------------------------------|
D|------------------------------------------------|

This Is The Violin Bit On Guitar in the background of the pre-chorus

E|-----------------------------|
B|-----------7--9---------7--9-|
G|----8--10--------8--10-------| ringing notes
D|-----------------------------|
A|-----------------------------|
D|-----------------------------|

Chorus

E|------------------------------------------------|
B|----------14-14-14-14-14----------14-14-14-14-14|
G|-11-11-11----------------11-11-11---------------|
D|------------------------------------------------|
A|------------------------------------------------|
D|------------------------------------------------|
                               
E|------------------------------------------------|
B|----------14-14-14-14-14----------14-14-14-14-14|
G|-10-10-10----------------10-10-10---------------|
D|------------------------------------------------|
A|------------------------------------------------|
D|------------------------------------------------|
                                                      X2
E|------------------------------------------------|
B|----------14-14-14-14-14----------14-14-14-14-14|
G|------------------------------------------------|
D|-13-13-13----------------13-13-13---------------|
A|------------------------------------------------|
D|------------------------------------------------|

E|------------------------------------------------|
B|----------14-14-14-14-14----------14-14-14-14-14|
G|------------------------------------------------|
D|-11-11-11----------------11-11-11---------------|
A|------------------------------------------------|
D|------------------------------------------------|

Bridge

E|-------------------------|
B|-------------------------|
G|-------------------------| Let Ring for a short while
D|--4----------------------|
A|--4----------------------|
D|--4----------------------|

Chorus

E|------------------------------------------------|
B|----------14-14-14-14-14----------14-14-14-14-14|
G|-11-11-11----------------11-11-11---------------|
D|------------------------------------------------|
A|------------------------------------------------|
D|------------------------------------------------|
                               
E|------------------------------------------------|
B|----------14-14-14-14-14----------14-14-14-14-14|
G|-10-10-10----------------10-10-10---------------|
D|------------------------------------------------|
A|------------------------------------------------|
D|------------------------------------------------|
                                                      X2
E|------------------------------------------------|
B|----------14-14-14-14-14----------14-14-14-14-14|
G|------------------------------------------------|
D|-13-13-13----------------13-13-13---------------|
A|------------------------------------------------|
D|------------------------------------------------|

E|------------------------------------------------|
B|----------14-14-14-14-14----------14-14-14-14-14|
G|------------------------------------------------|
D|-11-11-11----------------11-11-11---------------|
A|------------------------------------------------|
D|------------------------------------------------|

*Outro*

Last Chorus

E|------------------------------------------------|
B|------------------------------------------------|
G|-11x16---10x8---13x8---11x16---13x8---15x8------|
D|------------------------------------------------|
A|------------------------------------------------|
D|------------------------------------------------|
                               
E|------------------------------------------------|
B|------------------------------------------------|
G|-11x16---10x12-10s/13-13x3---11x16--------------|
D|------------------------------------------------|
A|------------------------------------------------|
D|------------------------------------------------|

E|---------------------------------------------------------------|
B|---------------------------------------------------------------|
G|--11s/13-13-13----------13s/15-15-15----------15-15-16-18x16---|
D|---------------11-11-11--------------11-11-11------------------|
A|---------------------------------------------------------------|
D|---------------------------------------------------------------|

Outro

E|-------------------------------------------------|
B|-------11----12-11----14----12-11----14----12----|
G|-10s11----11-------11----11-------11----11----11-| X4
D|-------------------------------------------------|
A|-------------------------------------------------|
D|-------------------------------------------------|

                              Let It Ring
                             /
E|--------------------------14-----|
B|-11-12-14-11-12-14-11-12---------|
G|---------------------------------|
D|---------------------------------|
A|---------------------------------|
D|---------------------------------|

Have updated this tab since I last did it.  Thanks to tomk71 for helping out
with the part I hadn't tabbed before (the bit before the chorus), was 
greatly appreciated mate =]

Also updated the end of the song.  The guitar completely changes at the end for 
the chorus I've recently realized haha =]

Hope you like it =]
            
Hard to play? Try these video lessons and learn fast. | Correct




comments powered by Disqus
↑ Back to top | Tablatures and chords are parodies/interpretations of the original songs. You may use it for private study, scholarship, research or language learning purposes only