» » »

Stranger In A Strange Land Tabs (ver.1)

Artists:  A B C D E F G H I J K L M N O P Q R S T U V W X Y Z # 

Stranger In A Strange Land Tabs (ver.1)

30 Seconds To Mars
Rating:
0/5 (0 votes)

Tabs too difficult? Try these video lessons and learn fast.
                (Intro)
-----------------------------------------------------------------------------
                       Stranger in a Strange Land – 30 Seconds to Mars
-----------------------------------------------------------------------------

Tuning: Standard 

e|----------------------------------------------------------------|
B|-----------------7-7-7-7-7-7-7-7-2-2-2-2-2-2-2-2-2-2-2-2-2-2-2-2|
G|-3-3-3-3-3-3-3-3-8-8-8-8-8-8-8-8-3-3-3-3-3-3-3-3-3-3-3-3-3-3-3-3|  X4
D|-4-4-4-4-4-4-4-4-8-8-8-8-8-8-8-8-3-3-3-3-3-3-3-3-3-3-3-3-3-3-3-3|
A|-4-4-4-4-4-4-4-4-6-6-6-6-6-6-6-6-1-1-1-1-1-1-1-1-1-1-1-1-1-1-1-1|
E|-2-2-2-2-2-2-2-2------------------------------------------------|


This is my first tab so i'm not sure it's perfect but 30 Seconds to Mars are awesome!!!
            
Tabs too difficult? Try these video lessons and learn fast.




comments powered by Disqus
↑ Back to top | Tablatures and chords are parodies/interpretations of the original songs. You may use it for private study, scholarship, research or language learning purposes only