» » »

Buddha For Mary Tabs (ver.1)

Artists:  A B C D E F G H I J K L M N O P Q R S T U V W X Y Z # 

Buddha For Mary Tabs (ver.1)

30 Seconds To Mars
Rating:
0/5 (0 votes)

Hard to play? Try these video lessons and learn fast.
                
Tuning: Drop C (C G C F A D)

Intro
			  x3
|---------------------------|-----------------------------|
|---------------------------|-----------------------------|
|---------------------------|-------------9-9-10-10-12-12-|
|-0-0-8-8-5-5-10-10-8-8-7-7-|-0-0-8-8-5-5-x-x-x--x--x--x--|
|-0-0-8-8-5-5-10-10-8-8-7-7-|-0-0-8-8-5-5-7-7-8--8--10-10-|
|-0-0-8-8-5-5-10-10-8-8-7-7-|-0-0-8-8-5-5-----------------|

Verse(w/ clean tone)* PM Throughout
|----------------------------------------------|
|----------------------------------------------|
|----------------------------------------------|
|----------------------------------------------|
|-8-8-8-10-10-10-13-13-13-12-12-12-12-12-12-12-|
|----------------------------------------------|

|------------------------------------------|
|------------------------------------------|
|------------------------------------------|
|------------------------------------------|
|-8-8-8-10-10-10-13-13-13-12-12-12-0-0-0-0-|
|------------------------------------------|

|----------------------------------------------|
|----------------------------------------------|
|----------------------------------------------|
|----------------------------------------------|
|-8-8-8-10-10-10-13-13-13-12-12-12-12-12-12-12-|
|----------------------------------------------|

|------------------------------------|
|------------------------------------|
|------------------------------------|
|------------------------------------|
|-8-8-8-10-10-10-5-5-5-5-5-5-5-5-5-5-|
|------------------------------------|
Play all riffs 2 times total.
*NOTE: Second time this comes in second guitar plays it with a weird effect

Pre-Chorus
			  x3
|---------------------------|-----------------------------|
|---------------------------|-----------------------------|
|---------------------------|-------------9-9-10-10-12-12-|
|-0-0-8-8-5-5-10-10-8-8-7-7-|-0-0-8-8-5-5-x-x-x--x--x--x--|
|-0-0-8-8-5-5-10-10-8-8-7-7-|-0-0-8-8-5-5-7-7-8--8--10-10-|
|-0-0-8-8-5-5-10-10-8-8-7-7-|-0-0-8-8-5-5-----------------|

Chorus
|---------------------------------------------------|
|---------------------------------------------------|
|---------------------------------------------------|
|-8-8-8-8-8-8-8-8-8-8-8-10\-5-5-5-5-5-5-5-5-5-5-5-3-|
|-8-8-8-8-8-8-8-8-8-8-8-10\-5-5-5-5-5-5-5-5-5-5-5-3-|
|-8-8-8-8-8-8-8-8-8-8-8-10\-5-5-5-5-5-5-5-5-5-5-5-3-|

|-------------------------------------------------|
|-------------------------------------------------|
|-------------------------------------------------|
|-0-0-0-10-10-10-10-10-10\5-5-5-5-5-5-5-5-5-5-5-5-|
|-0-0-0-8--8--8--8--8--8-\3-3-3-3-3-5-5-5-5-5-5-5-|
|-0-0-0-----------------------------5-5-5-5-5-5-5-|

Repeat Second Verse same way, except second guitar doesn't do weird part
Play Pre-Chorus same
Play Chorus double but at the end play last riff like this:
|---------------------------------------------|
|---------------------------------------------|
|---------------------------------------------|
|-0-0-0-10-10-10-10-10-10\5-5-5-5-5-5-3-/8-10-|
|-0-0-0-8--8--8--8--8--8-\3-3-3-3-3-5-3-/8-10-|
|-0-0-0-----------------------------5-3-/8-10-|

Guitar 1
|-------------------|
|-------------------|
|-15~----14~----12~-|
|-x------x------x---|
|-13~----12~----10~-|
|-------------------|
|
Guitar 2
|----------------|
|----------------|
|----------------|
|-8~----7~----5~-|
|-8~----7~----5~-|
|-8~----7~----5~-|

Interlude
|-------|
|-------|
|-------|
|-12~\\-|
|-12~\\-|
|-12~\\-|x12

Bridge
|-------------------------------|
|-------------------------------|
|-------------------------------|
|-0-0-8-8-5-5-10-10-10-10-10-10-|
|-0-0-8-8-5-5-10-10-10-10-10-10-|
|-0-0-8-8-5-5-10-10-10-10-10-10-|x3

|---------------------------|
|---------------------------|
|-------------8-8-8-8-8-8-8-|
|-0-0-8-8-5-5-x-x-x-x-x-x-x-|
|-0-0-8-8-5-5-6-6-6-6-6-6-6-|
|-0-0-8-8-5-5---------------|

|--------------------------------|
|--------------------------------|
|-------------10-10-10-10-10-9-9-|
|-0-0-8-8-5-5-x--x--x--x--x--x-x-|
|-0-0-8-8-5-5-8--8--8--8--8--7-7-|
|-0-0-8-8-5-5--------------------|x3

|------------------|
|------------------|
|------------------|
|-0--8--5--3-/10-7-|
|-0--8--5--3-/10-7-|
|-0--8--5--3-/10-7-|

Outro
|---------------------------------------------------|
|---------------------------------------------------|
|---------------------------------------------------|
|-8-8-8-8-8-8-8-8-8-8-8-10\-5-5-5-5-5-5-5-5-5-5-5-3-|
|-8-8-8-8-8-8-8-8-8-8-8-10\-5-5-5-5-5-5-5-5-5-5-5-3-|
|-8-8-8-8-8-8-8-8-8-8-8-10\-5-5-5-5-5-5-5-5-5-5-5-3-|

|----------------------------------------------------------|
|----------------------------------------------------------|
|----------------------------------------------------------|
|-8-8-8-8-8-8-8-8-8-8-10h12-12-12-5-5-5-5-5-5-5-5-5-5-5/12-|
|-8-8-8-8-8-8-8-8-8-8-10h12-12-12-5-5-5-5-5-5-5-5-5-5-5/12-|
|-8-8-8-8-8-8-8-8-8-8-10h12-12-12-5-5-5-5-5-5-5-5-5-5-5/12-|

|-----------------------------------------------------------------------|
|-----------------------------------------------------------------------|
|-----------------------------------------------------------------------|
|-8-8-8-8-8-8-8-8-8-8-8-8-8-8-10-10-10-10-10-10-10-10-10-10-10-10-10-10-|
|-8-8-8-8-8-8-8-8-8-8-8-8-8-8-10-10-10-10-10-10-10-10-10-10-10-10-10-10-|
|-8-8-8-8-8-8-8-8-8-8-8-8-8-8-10-10-10-10-10-10-10-10-10-10-10-10-10-10-|

|-------------------------------------------------|
|-------------------------------------------------|
|-------------------------------------------------|
|-0-0-0-10-10-10-10-10-10\5-5-5-5-5-5-5-5-5-5-5-5-|
|-0-0-0-8--8--8--8--8--8-\3-3-3-3-3-5-5-5-5-5-5-5-|
|-0-0-0-----------------------------5-5-5-5-5-5-5-|

|---------------------------------------|
|---------------------------------------|
|---------------------------------------|
|-0-0-0-10-10-10-10-10-10\5-5-5-5-5-1~~-|
|-0-0-0-8--8--8--8--8--8-\3-3-3-3-3-1~~-|
|-0-0-0-----------------------------1~~-|

That's the song.
            
Hard to play? Try these video lessons and learn fast. | Correct




comments powered by Disqus
↑ Back to top | Tablatures and chords are parodies/interpretations of the original songs. You may use it for private study, scholarship, research or language learning purposes only