» » »

Alibi Tabs (ver.1)

Artists:  A B C D E F G H I J K L M N O P Q R S T U V W X Y Z # 

Alibi Tabs (ver.1)

30 Seconds To Mars
Rating:
5/5 (4 votes)

Hard to play? Try these video lessons and learn fast.
                30 Seconds to Mars                                     30 Seconds to Mars

This Is war                                                   This Is war

2010                                                                 2010


                                 "Alibi"



                    (Tune low E and A up 1/2 tone)
Intro:

E :---5---5---5---5---5---5-6-5-3-5----5---5---5---5---5---5-6-5-3-5----|
B :-6---6---6---6---6---6------------6---6---6---6---6---6--------------|
G :---------------------------------------------------------------------|
D :---------------------------------------------------------------------|
Bb:----------------------------------0----------------------------------|
F :-0-------------------------------------------------------------------|


E :---5---5---5---5---5---5-6-5-3-5----5---5---5---5---5---5-8--6-5-----|
B :-6---6---6---6---6---6------------6---6---6---6---6---6--------------|
G :---------------------------------------------------------------------|
D :---------------------------------------------------------------------|
Bb:----------------------------------0----------------------------------|
F :-0-------------------------------------------------------------------|

                 (8)
E :---5---5---5---5---5---5-6-5-3-5----5---5---5---5---5---5--6---5-----|
B :-6---6---6---6---6---6------------6---6---6---6---6---6-----(6)---6--|
G :----(5)------------------------------(5)-----------------------------|
D :---------------------------------------------------------------------|
Bb:----------------------------------0------------(7)-------------------|
F :-0-------------------------------------------------------------------|

                 (8)
E :---5---5---5---5---5---5-6-5-3-5----5---5---5---5---5---5-8--6-5-----|
B :-6---6---6---6---6---6------------6---6---6---6---6---6----------(6)-|
G :----(5)------------------------------(5)-----------------------------|
D :-----------------------------------------------(7)-------------------|
Bb:----------------------------------0----------------------------------|
F :-0-------------------------------------------------------------------|




1st Verse:

Bb:-------0-----------0-----------0-----------0---|
F :-0-----------0-----------0-----------0---------|

     F                      Bb
     No warning sign, no alibi
                                        F      
     We faded faster than the speed of light
                                   Bb 
     Took our chance, crashed and burned
                               
     No we'll never ever learn

      F      Bb  
     I fell apart, but got back up again
              F       Bb     
     And then I fell apart, but got back up again yeah

Piano:
    F           Bb     F                    Bb       
E :-------5------------------------5------------------------------|
B :---8---------------------8-------------------------------------|
G :----------5---7------------------------5-----7-----------------|
D :---------------------------------------------------------------|
Bb:--------------0------------------------------0-----------------|
F :-0-------------------0-----------------------------------------|
Guitar:
E :---------------------------------------------------------------------|
B :---------------------------------------------------------------------|
G :--------------------(5)-5-5-5-3-2----5-5-5-3-2----5-5-5-3~-2~------2-|
D :-----------------------------------------------0-------------3-0s3---|
A :---------------------------------------------------------------------|
E :---------------------------------------------------------------------|

2nd Verse:

    F                              Bb
    We both could see, crystal clear
                                     F
    That the inevitable end was near
                                   Bb
    Made our choice, a trial by fire
                                     
    Do battle is the only way we feel



E :---5---5---5---5---5---5-6-5-3-5----5---5---5---5---5---5-6-5-3-5----|
B :-6---6---6---6---6---6------------6---6---6---6---6---6--------------|
G :---------------------------------------------------------------------|
D :---------------------------------------------------------------------|
Bb:----------------------------------0----------------------------------|
F :-0-------------------------------------------------------------------|
    F                                Bb
    I             fell              apart, but got back up again and then

E :---5---5---5---5---5---5-6-5-3-5----5---5---5---5---5---5-8--6-5-----|
B :-6---6---6---6---6---6------------6---6---6---6---6---6--------------|
G :---------------------------------------------------------------------|
D :---------------------------------------------------------------------|
Bb:----------------------------------0----------------------------------|
F :-0-------------------------------------------------------------------|
    F                                Bb
    I             fell              apart, but got back up again and then

E :---5---5---5---5---5---5-6-5-3-5----5---5---5---5---5---5-8--6-5-----|
B :-6---6---6---6---6---6------------6---6---6---6---6---6--------------|
G :---------------------------------------------------------------------|
D :---------------------------------------------------------------------|
Bb:-4-------------------------------------------------------------------|
F :----------------------------------7----------------------------------|
    Dm                               C
    I fell                          apart, but got back up again



E :---5---5---5---5---5---6--5-3-5-----5---5---5---5---5---6--5-3-5-----|
B :-6---6---6---6---6---6------------6---6---6---6---6---6--------------|
G :---------------------------------------------------------------------|
D :---------------------------------------------------------------------|
Bb:-0------------------------------------------------0------------------|
F :-----------------7----------------0----------------------------------|
    Bb                 C             F               Bb
    Oh Way Oh         Oh Way Oh     Oh Way Oh       Oh Way Oh

E :---5---5---5---5---5---6--6-5--------------|
B :-6---6---6---6---6---6--------6------------|
G :-------------------------------------------|
D :-------------------------------------------|
Bb:-0-----------------------------------------|
F :-----------------7-------------------------|
    Bb                C
    Oh Way Oh         Oh Way Oh


Piano:
    F                     Bb         
E :---------5-------------------------------|
B :----8------------------------------------|
G :-------------------5---7-----------------|
D :-----------------------------------------|
Bb:-----------------------0-----------------|
F :-0---------------------------------------|
Guitar:
E :---------------------------------------------------------------|
B :---------------------------------------------------------------|
G :-5-5-5-3-2---5-5-5-3-2-----5-5-5-3-2----5-5-5s7~s2-------------|
D :-----------------------3---------------------------------------|
A :---------------------------------------------------------------|
E :---------------------------------------------------------------|
Piano:
    F                     Bb         
E :---------5-------------------------------|
B :----8------------------------------------|
G :-------------------5---7-----------------|
D :-----------------------------------------|
Bb:-----------------------0-----------------|
F :-0---------------------------------------|
Guitar:
E :---------------------------------------------------------------|
B :---------------------------------------------------------------|
G :-5-5-5-3-2---5-5-5-3-2-3-2-------------------------------------|
D :---------------------------3--3-0-3-s5-3s8-8-8-7--7-s10--------|
A :---------------------------------------------------------------|
E :---------------------------------------------------------------|

Last Verse:

E :---------------------------------------------------------------------|
B :---------------------------------------------------------------------|
G :---------------------------------------------------------------------|
D :---------------------------------------------------------------------|
Bb:------------------------------0--------------------------------------|
F :-0-------------------------------------------------------------------|
    F                            Bb
    So here we are,  reaching  out  The quickest tongue to divide and devo-
                 (8)                          (8)
E :---5---5---5---5---5---5-6-5-3-5----5---5---5---5---5---5-8---5-6----|
B :-6---6---6---6---6---6------------6---6---6---6---6---6-----6--------|
G :---------------------------------------------------------------------|
D :---------------------------------------------------------------------|
Bb:----------------------------------0----------------------------------|
F :-0-------------------------------------------------------------------|
    F                               Bb
   -ur Divide and      devour
    F                               Bb
    If I could end the quest for fire
                                    F                       
    For truth, for love, and my desire
       
E :---------------------------------------------------------------|
B :---------------------------------------------------------------|
G :-----5---5-3-2-------5---5-3-2------5---5-3-2------5--5-3-2-3s-|
D :-3-3---3---------3-3---3--------3-3---3--------3-3---3---------|
A :---------------------------------------------------------------|
E :---------------------------------------------------------------|
                                 Bb
                                Myself
E :---5---5---5---5---5---6--5-3-5-----5---5---5---5---5---6--5-3-5-----|
B :-6---6---6---6---6---6------------6---6---6---6---6---6--------------|
G :---------------------------------------------------------------------|
D :---------------------------------------------------------------------|
Bb:-4-------------------------------------------------------------------|
F :----------------------------------7----------------------------------|
        D       C                 
    And I fell apart, but got back up again
E :---5---5---5---5---5---6--5-3-5-----5---5---5---5---5---6--5-3-5-----|
B :-6---6---6---6---6---6------------6---6---6---6---6---6--------------|
G :---------------------------------------------------------------------|
D :---------------------------------------------------------------------|
Bb:-0----(0)-----------------------------------------0----(0)-----------|
F :-----------------7----(7)---------0----(0)---------------------------|
       Bb              C             F             Bb
    Oh Way Oh      Oh Way Oh        Oh Way Oh      Oh Way Oh
E :---5---5---5---5---5---6--5-3-5-----5---5---5---5---5---6--5-3-5-----|
B :-6---6---6---6---6---6------------6---6---6---6---6---6--------------|
G :---------------------------------------------------------------------|
D :---------------------------------------------------------------------|
Bb:-0----(0)-----------------------------------------0----(0)-----------|
F :-----------------7----(7)---------0----(0)---------------------------|
       Bb              C              F              Bb
    Oh Way Oh      Oh Way Oh      Oh Way Oh      Oh Way Oh
E :---5---5---5---5---5---6--6-6-6--------|
B :-6---6---6---6---6---6-----------------|
G :---------------------------------------|
D :---------------------------------------|
Bb:-0----(0)------------------------------|
F :-----------------7----(7)--------------|
        Bb   C 
    Oh Way!!!



E:-----------------------------------------------------------------|
B:--5s6-6-6--6s8-8-8--8s10-10-10-10-10-10--------------------------|
G:-----------------------------------------------------------------|
D:-----------------------------------------------------------------|  X4
A:-----------------------------------------------------------------|
E:-----------------------------------------------------------------|

E:-----------------------------------------------------------------|
B:--6s8-8-8--8s10-10-10-10s11-11-11-11-11-11-----------------------|
G:-----------------------------------------------------------------|
D:-----------------------------------------------------------------|  X3
A:-----------------------------------------------------------------|
E:-----------------------------------------------------------------|
    C      Bb     
    I fell apart 

E:-----------------------------------------------------------------|
B:--6s8-8-8--8s10-10-10--10s8-8-8--8s6-6-6-------------------------|
G:-----------------------------------------------------------------|
D:-----------------------------------------------------------------|
A:-----------------------------------------------------------------|
E:-----------------------------------------------------------------|


E:---------8-------8--------8-----------8--------8-----------------|(it's wrong
B:--5-6-5----5-6-5----5-6-5-----5-5-6-5----5-6-5----5-6-8----------|and i can't
G:-----------------------------------------------------------------|figure it out)
D:-----------------------------------------------------------------|(UPDATE: i think 
A:-----------------------------------------------------------------|it's OK now!)
E:-----------------------------------------------------------------|
    C      Bb                         F
    I fell apart but got back up again



outro:
    F
E :-22-17-18-17--20-17-18-17--22-17-18-17--20-17-18-17--------------|
B :-----------------------------------------------------------------|
G :-----------------------------------------------------------------|
D :-----------------------------------------------------------------|
Bb:-----------------------------------------------------------------|
F :-0---------------------------------------------------------------|

    C
E :-22-17-18-17--20-17-18-17--22-17-18-17--20-17-18-17--------------|
B :-----------------------------------------------------------------|
G :-----------------------------------------------------------------|
D :-----------------------------------------------------------------|
Bb:-2---------------------------------------------------------------|
F :-----------------------------------------------------------------|

    D
E :-22-17-18-17--20-17-18-17--22-17-18-17--20-17-18-17--------------|
B :-----------------------------------------------------------------|
G :-----------------------------------------------------------------|
D :-----------------------------------------------------------------|
Bb:-4---------------------------------------------------------------|
F :-----------------------------------------------------------------|

    Bb
E :-22-17-18-17--20-17-18-17--22-17-18-17--20-15--13----------------|
B :-----------------------------------------------------------------|
G :-----------------------------------------------------------------|
D :-----------------------------------------------------------------|
Bb:-0---------------------------------------------------------------|
F :-----------------------------------------------------------------|

and so on...

:)
            
Hard to play? Try these video lessons and learn fast. | Correct




comments powered by Disqus
↑ Back to top | Tablatures and chords are parodies/interpretations of the original songs. You may use it for private study, scholarship, research or language learning purposes only