» » »

30 Seconds To Mars, A Beautiful Lie Tabs (ver.2)

Artists:  A B C D E F G H I J K L M N O P Q R S T U V W X Y Z # 

A Beautiful Lie Tabs (ver.2)

30 Seconds To Mars Tabs
Rating:
4/5 (29 votes)
A Beautiful Lie lessons Tabs too difficult? Try these video lessons and learn fast
                Guitar Tab
Standard Tuning

The intro of the song is on a synth, but here is the tab if you want to play it.
Synth Intro
|-----------------------------|
|--13--12----------13-12------|
|-----------12-------------12-|
|-----------------------------|
|-----------------------------|
|-----------------------------|

Guitar Intro
Both Guitars
|--------------------------------------------|
|--------------------------------------------|
|--------------------------------------------|
|--14-14-14-14--14-14-14-14-14--14-14-14--14-| x2
|--14-14-14-14--14-14-14-14-14--14-14-14--14-|
|--12-12-12-12--12-12-12-12-12--12-12-12--14-|

|--------------------------------------------|
|--------------------------------------------|
|--------------------------------------------|
|--10-10-10-10--10-10-10-10-10--10-10-10--10-| x2
|--10-10-10-10--10-10-10-10-10--10-10-10--10-|
|--8--8--8--8---8--8--8--8--8---8--8--8---8--|

|--------------------------------------------|
|--------------------------------------------|
|--------------------------------------------|
|--12-12-12-12--12-12-12-12-12--12-12-12--12-| x2
|--12-12-12-12--12-12-12-12-12--12-12-12--12-|
|--10-10-10-10--10-10-10-10-10--10-10-10--10-|

|--------------------------------------------|
|--------------------------------------------|
|--------------------------------------------|
|--14-14-14-14--14-14-14-14-14--14-14-14--14-| x2
|--14-14-14-14--14-14-14-14-14--14-14-14--14-|
|--12-12-12-12--12-12-12-12-12--12-12-12--14-|


Verse 1   (Only Drums and Bass)

Chorus 1
Both Guitars
|--------------------------------------------|
|--------------------------------------------|
|--------------------------------------------|
|--14-14-14-14--14-14-14-14-14--14-14-14--14-| x2
|--14-14-14-14--14-14-14-14-14--14-14-14--14-|
|--12-12-12-12--12-12-12-12-12--12-12-12--14-|

|--------------------------------------------|
|--------------------------------------------|
|--------------------------------------------|
|--10-10-10-10--10-10-10-10-10--10-10-10--10-| x2
|--10-10-10-10--10-10-10-10-10--10-10-10--10-|
|--8--8--8--8---8--8--8--8--8---8--8--8---8--|

|--------------------------------------------|
|--------------------------------------------|
|--------------------------------------------|
|--12-12-12-12--12-12-12-12-12--12-12-12--12-| x2
|--12-12-12-12--12-12-12-12-12--12-12-12--12-|
|--10-10-10-10--10-10-10-10-10--10-10-10--10-|

|--------------------------------------------|
|--------------------------------------------|
|--------------------------------------------|
|--14-14-14-14--14-14-14-14-14--14-14-14--14-| x2
|--14-14-14-14--14-14-14-14-14--14-14-14--14-|
|--12-12-12-12--12-12-12-12-12--12-12-12--14-|


Verse 2
Both Guitars
|----------------------------------------------------------------------|
|----------------------------------------------------------------------|
|----------------------------------------------------------------------|
|--10-10-10-10-10-10-10-10-10-10-10-10-10-9-9-9-9-9-9-9-9-9-9-9-9-9-9--|
|----------------------------------------------------------------------|
|----------------------------------------------------------------------|

|-----------------------------------------------------------------------------|
|-----------------------------------------------------------------------------|
|-----------------------------------------------------------------------------|
|--10-10-10-10-10-10-10-10-10-------------9-9-9-9-9-9-10-10-10-10-10-10-10-10-|
|-----------------------------12-12-12-12-------------------------------------|
|-----------------------------------------------------------------------------|

Chorus 2
Both Guitars
|--------------------------------------------|
|--------------------------------------------|
|--------------------------------------------|
|--14-14-14-14--14-14-14-14-14--14-14-14--14-| x2
|--14-14-14-14--14-14-14-14-14--14-14-14--14-|
|--12-12-12-12--12-12-12-12-12--12-12-12--14-|

|--------------------------------------------|
|--------------------------------------------|
|--------------------------------------------|
|--10-10-10-10--10-10-10-10-10--10-10-10--10-| x2
|--10-10-10-10--10-10-10-10-10--10-10-10--10-|
|--8--8--8--8---8--8--8--8--8---8--8--8---8--|

|--------------------------------------------|
|--------------------------------------------|
|--------------------------------------------|
|--12-12-12-12--12-12-12-12-12--12-12-12--12-| x2
|--12-12-12-12--12-12-12-12-12--12-12-12--12-|
|--10-10-10-10--10-10-10-10-10--10-10-10--10-|

|--------------------------------------------|
|--------------------------------------------|
|--------------------------------------------|
|--14-14-14-14--14-14-14-14-14--14-14-14--14-| x2
|--14-14-14-14--14-14-14-14-14--14-14-14--14-|
|--12-12-12-12--12-12-12-12-12--12-12-12--14-|

|--------------------------------------|
|--------------------------------------|
|--10-10-10-10-10-10-12-12-12-12-12-12-|
|--10-10-10-10-10-10-12-12-12-12-12-12-|
|--8--8--8--8--8--8--10-10-10-10-10-10-|
|--------------------------------------|

If you want the Synth Solo, here it is.

|------------------------------------------------------------|
|--13-12-----------13-12-----------13-12------------12-13-12-|
|-----------12---------------12---------------12-------------|
|------------------------------------------------------------|
|------------------------------------------------------------|
|------------------------------------------------------------|
After the solo, slide your fingers down some strings. Don’t touch the fret board. 

Synth plays on Verse 3
|------|
|--10--|
|------|
|------|
|------|
|------|

Verse 3
(Verse 1)


Chorus 3  
Both Guitars
|--------------------------------------------|
|--------------------------------------------|
|--------------------------------------------|
|--14-14-14-14--14-14-14-14-14--14-14-14--14-| x2
|--14-14-14-14--14-14-14-14-14--14-14-14--14-|
|--12-12-12-12--12-12-12-12-12--12-12-12--14-|

|--------------------------------------------|
|--------------------------------------------|
|--------------------------------------------|
|--10-10-10-10--10-10-10-10-10--10-10-10--10-| x2
|--10-10-10-10--10-10-10-10-10--10-10-10--10-|
|--8--8--8--8---8--8--8--8--8---8--8--8---8--|

|--------------------------------------------|
|--------------------------------------------|
|--------------------------------------------|
|--12-12-12-12--12-12-12-12-12--12-12-12--12-| x2
|--12-12-12-12--12-12-12-12-12--12-12-12--12-|
|--10-10-10-10--10-10-10-10-10--10-10-10--10-|

|--------------------------------------------|
|--------------------------------------------|
|--------------------------------------------|
|--14-14-14-14--14-14-14-14-14--14-14-14--14-| x2
|--14-14-14-14--14-14-14-14-14--14-14-14--14-|
|--12-12-12-12--12-12-12-12-12--12-12-12--14-|

|--------------------------------------|
|--------------------------------------|
|--10-10-10-10-10-10-12-12-12-12-12-12-|
|--10-10-10-10-10-10-12-12-12-12-12-12-|
|--8--8--8--8--8--8--10-10-10-10-10-10-|
|--------------------------------------|






Guitar 1
|--------------------------------------------|
|--------------------------------------------|
|--14-14-14-14--14-14-14-14-14--14-14-14--14-| 
|--14-14-14-14--14-14-14-14-14--14-14-14--14-| x2
|--12-12-12-12--12-12-12-12-12--12-12-12--14-|
|--------------------------------------------|

|--------------------------------------------|
|--------------------------------------------|
|--10-10-10-10--10-10-10-10-10--10-10-10--10-| 
|--10-10-10-10--10-10-10-10-10--10-10-10--10-| x2
|--8--8--8--8---8--8--8--8--8---8--8--8---8--|
|--------------------------------------------|

|--------------------------------------------|
|--------------------------------------------|
|--------------------------------------------|
|--12-12-12-12--12-12-12-12-12--12-12-12--12-| x2
|--12-12-12-12--12-12-12-12-12--12-12-12--12-|
|--10-10-10-10--10-10-10-10-10--10-10-10--10-|

|--------------------------------------------|
|--------------------------------------------|
|--------------------------------------------|
|--14-14-14-14--14-14-14-14-14--14-14-14--14-| x2
|--14-14-14-14--14-14-14-14-14--14-14-14--14-|
|--12-12-12-12--12-12-12-12-12--12-12-12--14-|

|--------------------------------------|
|--------------------------------------|
|--10-10-10-10-10-10-12-12-12-12-12-12-|
|--10-10-10-10-10-10-12-12-12-12-12-12-|
|--8--8--8--8--8--8--10-10-10-10-10-10-|
|--------------------------------------|

Guitar 2
|--------------------------------------------|
|--------------------------------------------|
|--------------------------------------------|
|--14-14-14-14--14-14-14-14-14--14-14-14--14-| x2
|--14-14-14-14--14-14-14-14-14--14-14-14--14-|
|--12-12-12-12--12-12-12-12-12--12-12-12--14-|

|--------------------------------------------|
|--------------------------------------------|
|--------------------------------------------|
|--10-10-10-10--10-10-10-10-10--10-10-10--10-| x2
|--10-10-10-10--10-10-10-10-10--10-10-10--10-|
|--8--8--8--8---8--8--8--8--8---8--8--8---8--|

|--------------------------------------------|
|--------------------------------------------|
|--------------------------------------------|
|--12-12-12-12--12-12-12-12-12--12-12-12--12-| x2
|--12-12-12-12--12-12-12-12-12--12-12-12--12-|
|--10-10-10-10--10-10-10-10-10--10-10-10--10-|

|--------------------------------------------|
|--------------------------------------------|
|--------------------------------------------|
|--14-14-14-14--14-14-14-14-14--14-14-14--14-| x2
|--14-14-14-14--14-14-14-14-14--14-14-14--14-|
|--12-12-12-12--12-12-12-12-12--12-12-12--14-|

|--------------------------------------|
|--------------------------------------|
|--10-10-10-10-10-10-12-12-12-12-12-12-|
|--10-10-10-10-10-10-12-12-12-12-12-12-|
|--8--8--8--8--8--8--10-10-10-10-10-10-|
|--------------------------------------|


Synth Outro    (Synth Intro)
            

comments powered by Disqus
↑ Back to top | 30 Seconds To Mars Tabs for A Beautiful Lie. Lyrics for acoustic guitar and electric guitar. Tablatures and chords are parodies/interpretations of the original songs. You may use it for private study, scholarship, research or language learning purposes only