» » »

30 Foot Fall, Kirk Cameron Sings The Blues Tabs (ver.1)

Artists:  A B C D E F G H I J K L M N O P Q R S T U V W X Y Z # 

Kirk Cameron Sings The Blues Tabs (ver.1)

30 Foot Fall Tabs
 Rating:
4/5 (4 votes)
Kirk Cameron Sings The Blues lessons Tabs too difficult? Try these video lessons and learn fast
                
Intro - Drum and Bass 

Verse - Screech in 
e|-------------------------------------|-------------------------------------| 
B|-------------------------------------|-------------------------------------| 
G|-77777777----------------------------|-7~----------------------------------| 
D|-77777777-77777777-99999999-77777777-|-7~--7~--9~--7~----------------------| 
A|-55555555-77777777-99999999-77777777-|-5~--7~--9~--7~----------------------| 
E|----------55555555-77777777-55555555-|-----5~--7~--5~----------------------| 

e|---------------------------------------------------------------------------| 
B|---------------------------------------------------------------------------| 
G|---------------------------------------------------------------------------| 
D|-77777777-99999999---------------------------------------------------------| 
A|-77777777-99999999---------------------------------------------------------| 
E|-55555555-77777777---------------------------------------------------------| 
            
Submit corrections

comments powered by Disqus
↑ Back to top | 30 Foot Fall Tabs for Kirk Cameron Sings The Blues. Lyrics for acoustic guitar and electric guitar. Tablatures and chords are parodies/interpretations of the original songs. You may use it for private study, scholarship, research or language learning purposes only