» » »

30 Foot Fall, Entertainment Vs. Enlightenment Tabs (ver.1)

Artists:  A B C D E F G H I J K L M N O P Q R S T U V W X Y Z # 

Entertainment Vs. Enlightenment Tabs (ver.1)

30 Foot Fall Tabs
Rating:
0/5 (0 votes)
Entertainment Vs. Enlightenment lessons Tabs too difficult? Try these video lessons and learn fast
                
intro: 
e|--------------------------------------------------------------------| 
B|--------------------------------------------------------------------| 
G|--------------------------------------------------------------------| 
D|---------------------------6-6-6--5-8--7-7-7------------------------| 
A|-----4^6--4^6--4^6--4^6----4-4-4--3-6--5-5-5--6--7------------------| 
E|----------------------------------------------4--5------------------| 

verse: (p.m. and repeat a lot then let ring last time) 
e|--------------------------------------------------------------------| 
B|--------------------------------------------------------------------| 
G|--------------------------------------------------------------------| 
D|---6-6-6-5-8-7-7-7--------------------------------------------------| 
A|---4-4-4-3-6-5-5-5-6-7----------------------------------------------| 
E|-------------------4-5----------------------------------------------| 

Pre-Chorus Thing: 
e|--------------------------------------------------------------------| 
B|--------------------------------------------------------------------| 
G|--------------------------------------------------------------------| 
D|---6---------------------6------------------------------------------| 
A|---4----------6----------4----------6-----8-------------------------| 
E|--------------4---------------------4-----6-------------------------| 

Pre-Chorus Fills: 
e|-----------------------------------------------------------12^------| 
B|-- #1 -------------------------------- #2 ---10--12-----------------| 
G|--------------------------------------------------------------------| 
D|---------11^12^12 --11^12^12----------------------------------------| 
A|--------------------------------------------------------------------| 
E|--------------------------------------------------------------------| 

Chorus: 
e|--------------------------------------------------------------------| 
B|--------------------------------------------------------------------| 
G|--------------------------------------------------------------------| 
D|---------------6-6-6-6----------------------------------------------| 
A|---6-6-6-6-----4-4-4-4--------4^6--4^6--4^6--4^6--------------------| 
E|---4-4-4-4----------------------------------------------------------| 

e|--------------------------------------------------------------------| 
B|--------------------------------------------------------------------| 
G|--------------6-6-6-6-----------------------------------------------| 
D|--6-6-6-6-----4-4-4-4--------6^4--6^4--6^4--6^4---------------------| 
A|--4-4-4-4-----------------------------------------------------------| 
E|--------------------------------------------------------------------| 
            
Submit corrections

comments powered by Disqus
↑ Back to top | 30 Foot Fall Tabs for Entertainment Vs. Enlightenment. Lyrics for acoustic guitar and electric guitar. Tablatures and chords are parodies/interpretations of the original songs. You may use it for private study, scholarship, research or language learning purposes only