» » »

30 Foot Fall, Cheese Tabs (ver.1)

Artists:  A B C D E F G H I J K L M N O P Q R S T U V W X Y Z # 

Cheese Tabs (ver.1)

30 Foot Fall Tabs
Rating:
0/5 (0 votes)
Cheese lessons Tabs too difficult? Try these video lessons and learn fast
                intro and verse::

E------7--5---
A--5--9--7---
D--7--9--7---
G--7----------
B--------------
e---------------

chorus::

E--0--3/5/3--
A--2--5/7/5--
D--2--5/7/5--
G--------------
B--------------
e--------------

bridge::

E--0----0-0-1---------------0-0-0-0-3-3-3-3-7-7-7-7-5-5-5-5--
A--2----2-2-3---------------2-2-2-2-5-5-5-5-9-9-9-9-7-7-7-7--
D--2----2-2-3---------------2-2-2-2-5-5-5-5-9-9-9-9-7-7-7-7--
G-------------------------------------------------------------------------
B-------------------------------------------------------------------------
e-------------------------------------------------------------------------
          * *

i forgot the order of the song..you can figure it out not that hard
            

comments powered by Disqus
↑ Back to top | 30 Foot Fall Tabs for Cheese. Lyrics for acoustic guitar and electric guitar. Tablatures and chords are parodies/interpretations of the original songs. You may use it for private study, scholarship, research or language learning purposes only