» » »

30 Foot Fall, Better Off Dead Tabs (ver.1)

Artists:  A B C D E F G H I J K L M N O P Q R S T U V W X Y Z # 

Better Off Dead Tabs (ver.1)

30 Foot Fall Tabs
 Rating:
4/5 (4 votes)
Better Off Dead lessons Tabs too difficult? Try these video lessons and learn fast
1
                
Intro: 
e|---------------------------------------------------------------------------| 
B|---------------------------------------------------------------------------| 
G|---------------------------------------------------------------------------| 
D|-6-6-6-6--6-6-6-6--8-8-8-8-------------------------------------------------| 
A|-4-4-4-4--6-6-6-6--6-6-6-6-------------------------------------------------| 
E|----------4-4-4-4----------------------------------------------------------| 
ME!!! Last Night Should Have Killed me 

Verse 1 Repeat Twice 
e|---------------------------------------------------------------------------| 
B|---------------------------------------------------------------------------| 
G|---------------------------------------------------------------------------| 
D|-6-6-6-6--6-6-6-6--8-8-8-8--3-3-3-3--4-4-4-4--6-6-6-6--8-8-8-8--6-6-6-6----| 
A|-4-4-4-4--6-6-6-6--8-8-8-8--3-3-3-3--4-4-4-4--4-4-4-4--6-6-6-6--6-6-6-6----| 
E|----------4-4-4-4--6-6-6-6--1-1-1-1--2-2-2-2--------------------4-4-4-4----| 

Chorus 
e|---------------------------------------------------------------------------| 
B|---------------------------------------------------------------------------| 
G|---------------------------------------------------------------------------| 
D|-4-4-4-4--6-6-6-6--6-6--5-5--3-3--6-6--4-4-4-4--6-6-6-6--6-6--5-5--3-3--6-6| 
A|-4-4-4-4--6-6-6-6--4-4--3-3--1-1--6-6--4-4-4-4--6-6-6-6--4-4--3-3--1-1--6-6| 
E|-2-2-2-2--4-4-4-4-----------------4-4--2-2-2-2--4-4-4-4-----------------4-4| 

e|---------------------------------------------------------------------------| 
B|---------------------------------------------------------------------------| 
G|---------------------------------------------------------------------------| 
D|-4-4-4-4--6-6-6-6--6-6--5-5--3-3--6-6--4-4-4-4-4-4-4-4--6-6-6-6-6-6-6-6----| 
A|-4-4-4-4--6-6-6-6--4-4--3-3--1-1--6-6--4-4-4-4-4-4-4-4--6-6-6-6-6-6-6-6----| 
E|-2-2-2-2--4-4-4-4-----------------4-4--2-2-2-2-2-2-2-2--4-4-4-4-4-4-4-4----| 

Verse 2 
e|---------------------------------------------------------------------------| 
B|---------------------------------------------------------------------------| 
G|---------------------------------------------------------------------------| 
D|-6-6-6-6--6-6-6-6--8-8-8-8--3-3-3-3--4-4-4-4--6-6-6-6--8-8-8-8--6-6-6-6----| 
A|-4-4-4-4--6-6-6-6--8-8-8-8--3-3-3-3--4-4-4-4--4-4-4-4--6-6-6-6--6-6-6-6----| 
E|----------4-4-4-4--6-6-6-6--1-1-1-1--2-2-2-2--------------------4-4-4-4----| 

e|---------------------------------------------------------------------------| 
B|---------------------------------------------------------------------------| 
G|---------------------------------------------------------------------------| 
D|-6-6-6-6--6-6-6-6--8-8-8-8--3-3-3-3--4-4-4-4--6-6-6-6--8-8-8-8--6-6-6-6----| 
A|-4-4-4-4--6-6-6-6--8-8-8-8--3-3-3-3--4-4-4-4--4-4-4-4--6-6-6-6--6-6-6-6----| 
E|----------4-4-4-4--6-6-6-6--1-1-1-1--2-2-2-2--------------------4-4-4-4----| 

e|---------------------------------------------------------------------------| 
B|---------------------------------------------------------------------------| 
G|---------------------------------------------------------------------------| 
D|-6-6-6-6--6-6-6-6--8-8-8-8--3-3-3-3--4-4-4-4--6-6-6-6--8-8-8-8--6-6-6-6----| 
A|-4-4-4-4--6-6-6-6--8-8-8-8--3-3-3-3--4-4-4-4--4-4-4-4--6-6-6-6--6-6-6-6----| 
E|----------4-4-4-4--6-6-6-6--1-1-1-1--2-2-2-2--------------------4-4-4-4----| 

Chorus 
e|---------------------------------------------------------------------------| 
B|---------------------------------------------------------------------------| 
G|---------------------------------------------------------------------------| 
D|-4-4-4-4--6-6-6-6--6-6--5-5--3-3--6-6--4-4-4-4--6-6-6-6--6-6--5-5--3-3--6-6| 
A|-4-4-4-4--6-6-6-6--4-4--3-3--1-1--6-6--4-4-4-4--6-6-6-6--4-4--3-3--1-1--6-6| 
E|-2-2-2-2--4-4-4-4-----------------4-4--2-2-2-2--4-4-4-4-----------------4-4| 

e|---------------------------------------------------------------------------| 
B|---------------------------------------------------------------------------| 
G|---------------------------------------------------------------------------| 
D|-4-4-4-4--6-6-6-6--6-6--5-5--3-3--6-6--4-4-4-4-4-4-4-4--6-6-6-6-6-6-6-6----| 
A|-4-4-4-4--6-6-6-6--4-4--3-3--1-1--6-6--4-4-4-4-4-4-4-4--6-6-6-6-6-6-6-6----| 
E|-2-2-2-2--4-4-4-4-----------------4-4--2-2-2-2-2-2-2-2--4-4-4-4-4-4-4-4----| 

Bridge 
e|---------------------------------------------------------------------------| 
B|---------------------------------------------------------------------------| 
G|---------------------------------------------------------------------------| 
D|-8-8-8-8-8-8-8-8--3-3-3-3-3-3-3-3--4-4-4-4-4-4-4-4--6-6-6-6-6-6-6-6--------| 
A|-8-8-8-8-8-8-8-8--3-3-3-3-3-3-3-3--4-4-4-4-4-4-4-4--6-6-6-6-6-6-6-6--------| 
E|-6-6-6-6-6-6-6-6--1-1-1-1-1-1-1-1--2-2-2-2-2-2-2-2--4-4-4-4-4-4-4-4--------| 

e|---------------------------------------------------------------------------| 
B|---------------------------------------------------------------------------| 
G|---------------------------------------------------------------------------| 
D|-8-8-8-8-8-8-8-8--3-3-3-3-3-3-3-3--4-4-4-4-4-4-4-4--6-6-6-6-6-6-6-6--------| 
A|-8-8-8-8-8-8-8-8--3-3-3-3-3-3-3-3--4-4-4-4-4-4-4-4--6-6-6-6-6-6-6-6--------| 
E|-6-6-6-6-6-6-6-6--1-1-1-1-1-1-1-1--2-2-2-2-2-2-2-2--4-4-4-4-4-4-4-4--------| 

Solo 
e|-13--13--11----11----9----9----8---8---6---6---4---4---6---6---8---8-------| 
B|---14--14---13----13---11---11---9---9---7---7---6---6---7---7---9---9-----| 
G|---------------------------------------------------------------------------| 
D|---------------------------------------------------------------------------| 
A|---------------------------------------------------------------------------| 
E|---------------------------------------------------------------------------| 

e|-13--13--11----11----9----9----8---8---6---6---4---4---6---6---8---8-------| 
B|---14--14---13----13---11---11---9---9---7---7---6---6---7---7---9---9-----| 
G|---------------------------------------------------------------------------| 
D|---------------------------------------------------------------------------| 
A|---------------------------------------------------------------------------| 
E|---------------------------------------------------------------------------| 

Chorus 
e|---------------------------------------------------------------------------| 
B|---------------------------------------------------------------------------| 
G|---------------------------------------------------------------------------| 
D|-4-4-4-4--6-6-6-6--6-6--5-5--3-3--6-6--4-4-4-4--6-6-6-6--6-6--5-5--3-3--6-6| 
A|-4-4-4-4--6-6-6-6--4-4--3-3--1-1--6-6--4-4-4-4--6-6-6-6--4-4--3-3--1-1--6-6| 
E|-2-2-2-2--4-4-4-4-----------------4-4--2-2-2-2--4-4-4-4-----------------4-4| 

e|---------------------------------------------------------------------------| 
B|---------------------------------------------------------------------------| 
G|---------------------------------------------------------------------------| 
D|-4-4-4-4--6-6-6-6--6-6--5-5--3-3--6-6--4-4-4-4-4-4-4-4--6-6-6-6-6-6-6-6----| 
A|-4-4-4-4--6-6-6-6--4-4--3-3--1-1--6-6--4-4-4-4-4-4-4-4--6-6-6-6-6-6-6-6----| 
E|-2-2-2-2--4-4-4-4-----------------4-4--2-2-2-2-2-2-2-2--4-4-4-4-4-4-4-4----| 

e|---------------------------------------------------------------------------| 
B|---------------------------------------------------------------------------| 
G|---------------------------------------------------------------------------| 
D|-6-------------------------------------------------------------------------| 
A|-4-------------------------------------------------------------------------| 
E|---------------------------------------------------------------------------| 
            
Submit corrections

comments powered by Disqus
↑ Back to top | 30 Foot Fall Tabs for Better Off Dead. Lyrics for acoustic guitar and electric guitar. 1 Tablatures and chords are parodies/interpretations of the original songs. You may use it for private study, scholarship, research or language learning purposes only