» »

/0-9/3-tabs-21475.html

»

Youve Been Shot Tabs (ver.1)

Artists:  A B C D E F G H I J K L M N O P Q R S T U V W X Y Z # 

Youve Been Shot Tabs (ver.1)

3
Rating:
0/5 (0 votes)

Hard to play? Try these video lessons and learn fast.
                thefamily3.com



Joey Eppard 
"You've Been Shot" (from the live recording found on the fansite) 
Paint By Number I guess 
Tuned in E Open Major (EBEG#BE) 


Verse: 

Get Funky (FUnKkKyY!) use the base of the guitar as percussion 


|-----------------------------------------------| 
|-----------(12)--------------------------------| 
|-----------(12)--------------------------------| 
|------(12)---------9h11-------------------12---| x2 
|----------------------------9h11--/9--0--------| 
|---9-------------------------------------------| 

|----------------------------------------------| 
|-----------(7)--------------------------------| 
|-----------(7)--------------------------5-----| 
|------(7)---------5h7-------------------------| x2 
|----------------------------5h7--/5--0--------| 
|---5------------------------------------------| 

Repeat till the chorus: 

Pre-Chorus 

|----------------| 
|----------------| 
|----------------| 
|---11--12----7--| 
|----------------| 
|---9---------5--| 

Chorus 

|----------------------| 
|----------------------| 
|----------------------| 
|---------11--12----7--|x3  
|-7---9----------------| 
|-7---9---9---------5--| 

end Chorus 

|------------0----------0--------0----| 
|-------------------------------------| 
|-------------------------------------| 
|----------5---5----5/7---7--7/8---8--|  
|-7---9----2--------2/4------4/5------| 
|-7---9-------------------------------| 

Back to verse then the bridge: 

BRIDGE: 

Finger pick: 

|-4-5-------------------------| 
|-------4-5---4-5---4-5-------| 
|-----------------------------| 
|-----------------------------|  
|--5----------0-----x---------| 
|-------5-----------0---------| 

then play as chords for the higher energy part (the part after "...got my kitchen full of fire") 

|-4-5-------------------------| 
|-------4-5---4-5---4-5-------| 
|-----------------------------| 
|-----------------------------|  
|-5-----------0-----5---------| 
|-------5-----------0---------| 

Then go back to the chorus etc repeat 
 
            
Hard to play? Try these video lessons and learn fast. | Correct




comments powered by Disqus
↑ Back to top | Tablatures and chords are parodies/interpretations of the original songs. You may use it for private study, scholarship, research or language learning purposes only