>
 >
 >
These Iron Bones

These Iron Bones Guitar Tabs

3 - These Iron Bones chords, tabs, tablatures, lyrics

Guitar lessons | Add/correct | Request | Top 50 tabs Artists:  A B C D E F G H I J K L M N O P Q R S T U V W X Y Z 0-9

These Iron Bones Guitar Tabs – 3

CD, Sheet music, Poster

Do you like These Iron Bones? Share with your friends now
Tabs
-------------------------------------------------------------------------------
                            3 - These Iron Bones
-------------------------------------------------------------------------------

Band:3
Album:The End Is Begun

Tuning:Standard

Intro 
e|------------------------------------------|
B|------------------------------------------|
G|------------------------------------------|
D|--------------------5---5-----------------|-----|
A|5--7-5-7-8-7-5--7-8---8----7-8-8-7-5-7-5--|     |
E|-----------------------------------------8|     |
                                                  |x2
e|------------------------------------------|     | 
B|------------------------------------------|     |
G|---------------------------------10---9---|     |
D|----------------------5---5------10---9---|-----|
A|5-5--7-5-7-8-7-5--7-8---8----7-8--8---7---|
E|------------------------------------------|


Verse 1
PM.  . . . . . .  . . . . .  . . . . . . . .
e|------------------------------------------|
B|------------------------------------------|
G|------------------------------------------|
D|--------------------5---5-----------------|-----|
A|5--7-5-7-8-7-5--7-8---8----7-8-8-7-5-7-5--|     |
E|-----------------------------------------8|     |
  .  . . . . . .  . . . . .  . .                |x2
e|------------------------------------------|     | 
B|------------------------------------------|     |
G|-------------------------------10----9----|     |
D|--------------------5---5------10----9----|-----|
A|5--7-5-7-8-7-5--7-8---8----7-8--8----7----|
E|------------------------------------------|

e|------------------------------------------|
B|------------------------------------------|
G|------------------------------------------|
D|--------------------5---5-----------------|-----|
A|5--7-5-7-8-7-5--7-8---8----7-8-8-7-5-7-5--|     |
E|-----------------------------------------8|     |
                                                  |x2
e|------------------------------------------|     | 
B|------------------------------------------|     |
G|---------------------------------10---9---|     |
D|----------------------5---5------10---9---|-----|
A|5-5--7-5-7-8-7-5--7-8---8----7-8--8---7---|
E|------------------------------------------|


Pre-Chorus 1

  Keyboard part, last note carries on to the chorus
e|10~-------10~-------8~----8~10~|
B|------10~-----11~------10~-----|
G|-------------------------------|
D|-------------------------------|
A|-------------------------------|
E|-------------------------------|
 |
 |Bass Part
G|-------------------|
D|-------------------|
A|5------------------|
E|-----3--5--6----8-\|


Chorus 1
e|-------------------------|
B|-------------------------|
G|-------------------------|
D|---------7-10-10--8-7----|-----|
A|-------8-----------------|     |
E|10-10-----------------10~|     |
                                 |
e|------------------|            |x2
B|------------------|            |
G|------------------|            |
D|-------5-8-8--7---|------------|
A|-----7------------|
E|8-8-------------8~|


Break/Intro 2 

e|------------------------------------------|
B|------------------------------------------|
G|------------------------------------------|
D|--------------------5---5-----------------|-----|
A|5--7-5-7-8-7-5--7-8---8----7-8-8-7-5-7-5--|     |
E|-----------------------------------------8|     |
                                                  |x2
e|------------------------------------------|     | 
B|------------------------------------------|     |
G|---------------------------------10---9---|     |
D|----------------------5---5------10---9---|-----|
A|5-5--7-5-7-8-7-5--7-8---8----7-8--8---7---|
E|------------------------------------------|


Verse 2
PM.  . . . . . .  . . . . .  . . . . . . . .
e|------------------------------------------|
B|------------------------------------------|
G|------------------------------------------|
D|--------------------5---5-----------------|-----|
A|5--7-5-7-8-7-5--7-8---8----7-8-8-7-5-7-5--|     |
E|-----------------------------------------8|     |
  .  . . . . . .  . . . . .  . .                |x2
e|------------------------------------------|     | 
B|------------------------------------------|     |
G|-------------------------------10----9----|     |
D|--------------------5---5------10----9----|-----|
A|5--7-5-7-8-7-5--7-8---8----7-8--8----7----|
E|------------------------------------------|

e|------------------------------------------|
B|------------------------------------------|
G|------------------------------------------|
D|--------------------5---5-----------------|-----|
A|5--7-5-7-8-7-5--7-8---8----7-8-8-7-5-7-5--|     |
E|-----------------------------------------8|     |
                                                  |x2
e|------------------------------------------|     | 
B|------------------------------------------|     |
G|---------------------------------10---9---|     |
D|----------------------5---5------10---9---|-----|
A|5-5--7-5-7-8-7-5--7-8---8----7-8--8---7---|
E|------------------------------------------|


Pre-Chorus 2

  Keyboard part, last note carries on to the chorus
e|10~-------10~-------8~----8~10~|
B|------10~-----11~------10~-----|
G|-------------------------------|
D|-------------------------------|
A|-------------------------------|
E|-------------------------------|
 |
 |Bass Part
G|-------------------|
D|-------------------|
A|5------------------|
E|-----3--5--6----8-\|


Chorus 2
e|-------------------------|
B|-------------------------|
G|-------------------------|
D|---------7-10-10--8-7----|-----|
A|-------8-----------------|     |
E|10-10-----------------10~|     |
                                 |
e|------------------|            |x4
B|------------------|            |
G|------------------|            |
D|-------5-8-8--7---|------------|
A|-----7------------|
E|8-8-------------8~|


Solo
e|---18-17-15------------------------13h15~----------------15~|
B|15----------18-17-15~--15h17-18-15---------18-17~--17h18----|
G|------------------------------------------------------------|
D|------------------------------------------------------------|
A|------------------------------------------------------------|
E|------------------------------------------------------------|

e|---17------------15----------------------------|
B|18-----18-15~-15-----17--------18--------------|
G|------------------------17~-17----14--17p14----|
D|--------------------------------------------15~|
A|-----------------------------------------------|
E|-----------------------------------------------|
(this is all I could figure out)


Pre-Chorus 3

Keyboard part
e|10~-------10~-------8~----8~|10~-------10~-------8~----8~10~|
B|------10~-----11~------10~--|------10~-----11~------10~-----|
G|----------------------------|-------------------------------|
D|----------------------------|-------------------------------|
A|----------------------------|-------------------------------|
E|----------------------------|-------------------------------|
 |
 |Bass Part
G|-------------------|-------------------|
D|-------------------|-------------------|
A|5------------------|5------------------|
E|-----3--5--6----8-\|-----3--5--6----8-\|
 |
 |Guitar Part
e|---------------------|----------------------|
B|---------------------|----------------------|
G|7---------------5---5|7---------------5---57|
D|7----5--7--8----5--75|7----5--7--8----5--757|
A|5----5--5--8----3--73|5----5--5--8----3--735|
E|-----3--5--6-------5-|-----3--5--6-------5--|


Chorus 3 
e|-------------------------|
B|-------------------------|
G|-------------------------|
D|---------7-10-10--8-7----|-----|
A|-------8-----------------|     |
E|10-10-----------------10~|     |
                                 |
e|------------------|            |x4
B|------------------|            |
G|------------------|            |
D|-------5-8-8--7---|------------|
A|-----7------------|
E|8-8-------------8~|


Outro
e|---------------------------|
B|---------------------------|
G|---------------------------|
D|7--------------------------|
A|7----7h8~----------------5~|
E|5---------5~-6~---6h8~-58--|


| /  slide up
| \  slide down
| h  hammer-on
| p  pull-off
| ~  vibrato
| +  harmonic
| x  Mute note
===============================================================================





Comments


Popular 3 tabs & chords
Alien Angel Intro Tabs
Alien Angel Intro 1 Tabs
Bramfatura Tabs
Dive Tabs
Dogs Of War Tabs
Queen Intro Tabs
Queen Intro 1 Tabs
Youve Been Shot Tabs
Po Nee Po Ukulele
The Barrier Ukulele


Song lyrics



↑ Back to top | Tablatures and chords are parodies/interpretations of the original songs. You may use it for private study, scholarship, research or language learning purposes only
© 2014 AZChords.com Contact us | Privacy policy | DMCA | Add/correct tabs | Request tabs | Top 50 tabs