>
 >
 >
Dive

Dive Guitar Tabs

3 - Dive chords, tabs, tablatures, lyrics

Guitar lessons | Add/correct | Request | Top 50 tabs Artists:  A B C D E F G H I J K L M N O P Q R S T U V W X Y Z 0-9

Dive Guitar Tabs – 3

CD, Sheet music, Poster

Do you like Dive? Share with your friends now
Tabs

3
Summercamp Nightmare

(guitar 1) 
|-----------0--------0------------| 
|-4-4p0------------4--/9----00----| 
|---------------------------00----| 
|----------2--2/5--------0--00----| 
|-4-4p0--0h2--2/5--4--/9-0--00-0*-| 
|--------0h2--2/5--------2-2---5*-| 

(guitar 2) 
|--------------------------------| 
|--------------------------------| 
|---0------0---------------------| 
|-----0------0----0-0----0-0-----| 3x 
|--4-4-4--4-4----4-4-4--4-4-4----| 
|-0------0------2------5---------| 

fake pretending you are not home 
i almost believe you 
but now, you're not alone 

|---------------------------------| 
|---------------------------------| 
|---0-----------------------------| 
|-----0------0-0---0-0----0-0-----| 
|--4-4-4/9--9-9---4-4-4--4-4-4----| 
|-0--------0-----2------5---------| 

cause i can deceive you 

|---00---00----00---00-----------------------| 
|---00---00----00---00-----------------------| 

|---00---00----00---00-----------------------| 
|-0----/7----0-00-0-00-----------------------| 
|-5----/9----0----0--------------------------| 
|-0-----0----2----5--------------------------| 

she floats in the water 
and i think she's drowning alive 
like a lamb to the slaughter 

|----0----0---0---0--| 
|----0----0---0---0--| 
|--0-0--0-0-0-0---0--| 
|--0----0---0---0----| 
|--0----0---0---0----| 
|--2---/5---0---4----| 

boy, don't be a fool, she'll be draining the pool 
as you 

|-----------------------0---------| 
|-----------------------0---------| 
|----12/11------7/9-----11--^~----| 
|---0---------0-------0-0---------| 
|--0--------9--------0--9---------| 
|-9--------9--------9---9---------| 

dive 

|--------------------------------| 
|--------------------------------| 
|---0------0---------------------| 
|-----0------0----0-0----0-0-----| 3 times 
|--4-4-4--4-4----4-4-4--4-4-4----| 
|-0------0------2------5---------| 

sure, ignorant seems to be free 
i'd like to remind you 
the price of what you don't see 
oh, shit, look out behind you 


|---00---00----00---00-----| 
|---00---00----00---00-----| 
|---00---00----00---00-----| 
|-0----/7----0-00-0-00-----| 
|-5----/9----0----0--------| 
|-0-----0----2----5--------| 

a ghost in the water 
and i think she thinks she's alive 
like a lamb to the slaughter 

|----0----0---0---0--| 
|----0----0---0---0--| 
|--0-0--0-0-0-0---0--| 
|--0----0---0---0----| 
|--0----0---0---0----| 
|--2---/5---0---4----| 

boy, don't be a fool, she'll be draining the pool 
as you 

|-0-0--0-0-0-0--0-0---0-0-0-0-0-0-0-0----| 
|-0-0--0-0-0-0--0-0---0-0-0-0-0-0-0-0----| 
|-0-0--0-0-0-0--0-0---0-0-0-0-0-0-0-0----| 
|-6-6--6-6-6-6--6-6---5-5-5-5-5-5-5-5----| 2x 
|-7-7--7-7-7-7--7-7---7-7-7-7-7-7-7-7----| 
|-----h9-9-----h9-9-------9-9-----9-9----| 

dive, into the same black hole 
survival 
(the door has opened up before blue eyes?) 
of the fettered soul 
except our perception moves 

(guitar 1) 
|--0-0-0-0-0-0--| 
|--0-0-0-0-0-0--| 
|--0-0-0-0-0-0--| 
|--6-6-5-5-4-4--| 
|--7-7-7-7-5-5--| 
|---------------| 

(guitar 2) 
|---------------------------------------------------| 
|-13b-12b-9b---10-9b-10-12b-10b-12b-13b-12b-15b-12b-| 
|---------------------------------------------------| 
|---------------------------------------------------| 
|---------------------------------------------------| 
|---------------------------------------------------| 

way too slow 

|--------------------------| 
|-0-0-0-0-0-0--0-0--0--0---| 
|-0-0-0-0-0-0--0-0--0--0---| 
|-0-0-0-0-0-0--0-0--0--0---| 
|-5-4-5-7-5-7-10-9-13-12---| 
|--------------------------| 

there are no final goodbyes on this earth 

|--------------------------------| 
|--------------------------------| 
|---0------0---------------------| 
|-----0------0----0-0----0-0-----| 
|--4-4-4--4-4----4-4-4--4-4-4----| 
|-0------0------2------5---------| 

oh, the dock's only daughter 
but now 


|---00---00----00---00-----------------------| 
|---00---00----00---00-----------------------| 
|---00---00----00---00-----------------------| 
|-0----/7----0-00-0-00-----------------------| 
|-5----/9----0----0--------------------------| 
|-0-----0----2----5--------------------------| 

she floats in the water 
and i think she's drowning alive 
like a lamb to the slaughter 

boy don't be a fool all your life 

a ghost in the water 
and i think she thinks she's alive 
like a lamb to the slaughter 

|----0----0---0---0--| 
|----0----0---0---0--| 
|--0-0--0-0-0-0---0--| 
|--0----0---0---0----| 
|--0----0---0---0----| 
|--2---/5---0---4----| 

boy, don't be a fool, she'll be draining the pool 
oh no, don't be a fool, she'll be draining the pool 
oh no don't be a fool, she'll be draining the pool 
as you 

|--0-0-0-----| 
|--0-0-0-----| 
|--0-0-0-----| 
|--0-0-4-----| 
|--2-4-5-----| 
|------------| 

dive 

(softly) 
|-----------------------| 
|-----------------------| 
|-----------------------| 
|-----0----0----0----0--| 
|----0-0--0-0--0-0--0-0-| 
|-0h2----5----0----4----| 

no, don't be a fool, she'll be draining the pool 
don't be a fool, she'll be draining the pool 
don't be a fool, she'll be draining the pool 
as you dive 

|------------------------------------| 
|------------------------------------| 
|----12/11------7/9--------11~-------| 
|---0---------0-------0---0----------| 
|--0--------9--------0---9-----------| 
|-9--------9--------9---9------------| 





Comments


Popular 3 tabs & chords
Po Nee Po Chords
The Barrier Chords
Alien Angel Intro Tabs
Alien Angel Intro 1 Tabs
Bramfatura Tabs
Dogs Of War Tabs
Queen Intro Tabs
Trust Intro Tabs
Youve Been Shot Tabs
Po Nee Po Ukulele


Song lyrics



↑ Back to top | Tablatures and chords are parodies/interpretations of the original songs. You may use it for private study, scholarship, research or language learning purposes only
© 2014 AZChords.com Contact us | Privacy policy | DMCA | Add/correct tabs | Request tabs | Top 50 tabs