» » »

No Limit Bass tabs (ver.1)

Artists:  A B C D E F G H I J K L M N O P Q R S T U V W X Y Z # 

No Limit Bass tabs (ver.1)

2 Unlimited
Rating:
4/5 (2 votes)
Tabs too difficult? Try these video lessons and learn fast.
                Tuning: Standard (EADG)

Some parts are just transcribed from keyboard, others are a somewhat vague bass line. 
figure out the sequence I guess.

Intro:

G|-----|
D|---8-|
A|-----| Repeat over & over
E|-6---|

Main Riff:

G|-----|-------6-|-----|-------6-|-----|-------6-|-----|---------|
D|-8-8-|-8-6-8---|-8-8-|-8-6-8---|-8-8-|-8-6-8---|-----|-4---4-6-|
A|-----|---------|-----|---------|-----|---------|-6-6-|---6-----|
E|-----|---------|-----|---------|-----|---------|-----|---------|

Chorus line:

G|----6-6-|----6-6-|----6-6-|-8-8-10-10-|
D|-8-8----|-8-8----|-8-8----|-----------|
A|--------|--------|--------|-----------|
E|--------|--------|--------|-----------|

Anita singing verse:

G|--------|--------|--------|
D|--------|--------|--------|
A|--------|--------|66666666|
E|66666666|44444444|--------|

Ray rapping verse:

G|-----------------|-----------------|-----------------|-----------------|
D|---8---8---8---8-|---8---8---8---8-|---8---8---8---8-|---6---6---6---6-|
A|-----------------|-----------------|-----------------|-----------------|
E|-6---6---6---6---|-6---6---6---6---|-6---6---6---6---|-4---4---4---4---|

Hope You enjoy with this beautifull 90's dance hit!!! ;-)
            
Tabs too difficult? Try these video lessons and learn fast.


comments powered by Disqus
↑ Back to top | Tablatures and chords are parodies/interpretations of the original songs. You may use it for private study, scholarship, research or language learning purposes only