» » »

Get Ready For This Tabs (ver.1)

Artists:  A B C D E F G H I J K L M N O P Q R S T U V W X Y Z # 

Get Ready For This Tabs (ver.1)

2 Unlimited
Rating:
4/5 (5 votes)
Tabs too difficult? Try these video lessons and learn fast.
                Intro/Riff 1


|-----7--7--7----------7--7--7--10--10--12--12--------------|
|-------------5-5-7-7---------------------------------------|
|-----------------------------------------------------------|
|-----------------------------------------------------------|
|-----------------------------------------------------------|
|-----------------------------------------------------------|

|-----7--7--7----------7--7--7--10--10--12--12--------------|
|-------------5-5-7-7---------------------------------------|
|-----------------------------------------------------------|
|-----------------------------------------------------------|
|-----------------------------------------------------------|
|-----------------------------------------------------------|

Riff 2

|------7-5-7-5-7-7--10---------7-5-7-5-7---------------------|
|----------------------------------------5-5-7-7-------------|
|------------------------------------------------------------|
|------------------------------------------------------------|
|------------------------------------------------------------|
|------------------------------------------------------------|
            
Tabs too difficult? Try these video lessons and learn fast.


comments powered by Disqus
↑ Back to top | Tablatures and chords are parodies/interpretations of the original songs. You may use it for private study, scholarship, research or language learning purposes only