» » »

Ya No Sos Igual Bass tabs (ver.1)

Artists:  A B C D E F G H I J K L M N O P Q R S T U V W X Y Z # 

Ya No Sos Igual Bass tabs (ver.1)

2 Minutos
Rating:
0/5 (0 votes)

Hard to play? Try these video lessons and learn fast.
                2 MINUTOS - YA NO SOS IGUAL


INTRO

1----------------------------------
2--3(*14)--------------------------
3----------3(*14)---5(*14)--1(*14)-
4----------------------------------


CORO
1----------------------------------
2--3(*14)--------------------------
3----------3(*14)---5(*14)--1(*14)-
4----------------------------------


VERSO
1----------------------------------
2--3(*14)--------------------------
3----------3(*14)---5(*14)--1(*14)-
4----------------------------------


CAMBIO
1----------------------------------
2----------------33333--------(*2)-
3-1111---3333----------------------
4----------------------------------
            
Hard to play? Try these video lessons and learn fast. | Correct




comments powered by Disqus
↑ Back to top | Tablatures and chords are parodies/interpretations of the original songs. You may use it for private study, scholarship, research or language learning purposes only