» » »

Pelea Callejera Bass tabs (ver.1)

Artists:  A B C D E F G H I J K L M N O P Q R S T U V W X Y Z # 

Pelea Callejera Bass tabs (ver.1)

2 Minutos
Rating:
0/5 (0 votes)

Hard to play? Try these video lessons and learn fast.
                Intro			
G|-----------------|x2
D|--6-6------------|
A|-------4-4--6-6--|
E|-----------------| 

Verso						
G|----------------------------------------|x4
D|-6-6-6-6-6-6----------------------------|
A|--------------4-4-4-4-4-4--6-6-6-6-6-6--|
E|----------------------------------------|

Coro				
G|---------------------------|x4
D|---------------------------|
A|-8-8-8-8-8-8--4-4-4-4-4-4--|
E|---------------------------|

Verso
Coro

Puente						
G|----------------------------------------|x4
D|----------------------------------------|
A|--------------4-4-4-4-4-4--6-6-6-6-6-6--|
E|-4-4-4-4-4-4----------------------------|

Coro
            
Hard to play? Try these video lessons and learn fast. | Correct




comments powered by Disqus
↑ Back to top | Tablatures and chords are parodies/interpretations of the original songs. You may use it for private study, scholarship, research or language learning purposes only