» » »

Otra Mujer Tabs (ver.1)

Artists:  A B C D E F G H I J K L M N O P Q R S T U V W X Y Z # 

Otra Mujer Tabs (ver.1)

2 Minutos
Rating:
0/5 (0 votes)

Hard to play? Try these video lessons and learn fast.
                2 MINUTOS
                       otra mujer


entrada

6-----------------5-5-5-5-5--6-6-6-6-6--5--3-3-3-3-3-------------
5--8-8-8-8-8-8-8--7-7-7-7-7--8-8-8-8-8--7--5-5-5-5-5--3-3-3-3-3--
4--10101010101010-7-7-7-7-7--8-8-8-8-8--7--5-5-5-5-5--5-5-5-5-5--
3--10101010101010-------------------------------------5-5-5-5-5--
2----------------------------------------------------------------
1----------------------------------------------------------------

verso

repite una entrada y luego haces x2 esto......

6--1-1-1-1-1-1-1--5-5-5-5-5--6-6-6-6-6--3-3-3-3-3-------------
5--3-3-3-3-3-3-3--7-7-7-7-7--8-8-8-8-8--5-5-5-5-5--3-3-3-3-3--
4--3-3-3-3-3-3-3--7-7-7-7-7--8-8-8-8-8--5-5-5-5-5--5-5-5-5-5--
3--------------------------------------------------5-5-5-5-5--
2-------------------------------------------------------------
1-------------------------------------------------------------

luego hace una parte que es asi y no es necesariamente del verso o coro y dice asi....
            ...la parte del 5 parace ser 6 tambien
6--1-1------5-5-------
5--3-3--3-3-7-7--3-3--
4--3-3--5-5-7-7--5-5--
3-------5-5------5-5-- x4
2---------------------
1---------------------

ahora el 2do verso es como la entrada y se hace x3

luego repite la pequena parte que no necesariamente es del coro 

luego el coro es lo mismo que la entrada pero x4

y termina asi

final

6---------
5--3---3--
4--5---5--
3--5---5--
2---------
1---------
 
creo que hay unas partesitas no poco seguras pero creo que esta bien.
            
Hard to play? Try these video lessons and learn fast. | Correct




comments powered by Disqus
↑ Back to top | Tablatures and chords are parodies/interpretations of the original songs. You may use it for private study, scholarship, research or language learning purposes only