» » »

2 Minutos, Meconverti En Un Marciano Tabs (ver.1)

Artists:  A B C D E F G H I J K L M N O P Q R S T U V W X Y Z # 

Meconverti En Un Marciano Tabs (ver.1)

2 Minutos Tabs
 Rating:
4.2/5 (5 votes)
Meconverti En Un Marciano lessons Tabs too difficult? Try these video lessons and learn fast
1
                

Artista: 2 Minutos
Cancion: Me Converti En Un Marciano


Intro

1|---------------------------------------------------------|
2|---------------------------------------------------------|
3|--------7------------------------------------------------|
4|--5--7--7------------------------------------------------|
5|--5--7--5------------------------------------------------|
6|--3--5---------------------------------------------------|

    Vamos!!

1|---------------------------------------------------------|
2|---------------------------------------------------------|
3|----------7-7-7--------------7-7-7-----------------------|x2
4|--9-9-9-9-7-7-7-7-7--9-9-9-9-7-7-7-7-7-------------------|
5|--9-9-9-9-5-5-5-7-7--9-9-9-9-5-5-5-7-7-------------------|
6|--7-7-7-7-------5-5--7-7-7-7-------5-5-------------------|



1|---------------------------------------------------------|
2|---------------------------------------------------------|
3|----------7-7-7--------------7-7-7-----------------------|
4|--9-9-9-9-7-7-7-7-7--9-9-9-9-7-7-7-7-7-------------------|
5|--9-9-9-9-5-5-5-7-7--9-9-9-9-5-5-5-7-7-------------------|
6|--7-7-7-7-------5-5--7-7-7-7-------5-5-------------------|


    Mi mente es algo terrible
    Una forma para matar

1|---------------------------------------------------------|
2|---------------------------------------------------------|
3|----------7-7-7--------------7-7-7-----------------------|
4|--9-9-9-9-7-7-7-7-7--9-9-9-9-7-7-7-7-7-------------------|
5|--9-9-9-9-5-5-5-7-7--9-9-9-9-5-5-5-7-7-------------------|
6|--7-7-7-7-------5-5--7-7-7-7-------5-5-------------------|


    No es un cuerpo de la tierra, noo
    Ni la cara que te amó

1|---------------------------------------------------------|
2|---------------------------------------------------------|
3|----------------7--7-------------------------------------|x8
4|--5-5-5-5-7-7-7-7--7-7-5---------------------------------|
5|--5-5-5-5-7-7-7-5--5-7-5---------------------------------|
6|--3-3-3-3-5-5-5------5-3---------------------------------|


   Me converti en un marciano
   Uo , ho ho
   Y me llaman por mi nombre
   Uo , ho ho
   Por las noches no puedo dormir
   Uo , ho ho
   Me converti en un marciano


1|---------------------------------------------------------|
2|---------------------------------------------------------|
3|----------7-7-7--------------7-7-7-----------------------|x2
4|--9-9-9-9-7-7-7-7-7--9-9-9-9-7-7-7-7-7-------------------|
5|--9-9-9-9-5-5-5-7-7--9-9-9-9-5-5-5-7-7-------------------|
6|--7-7-7-7-------5-5--7-7-7-7-------5-5-------------------|



1|---------------------------------------------------------|
2|---------------------------------------------------------|
3|----------7-7-7--------------7-7-7-----------------------|
4|--9-9-9-9-7-7-7-7-7--9-9-9-9-7-7-7-7-7-------------------|
5|--9-9-9-9-5-5-5-7-7--9-9-9-9-5-5-5-7-7-------------------|
6|--7-7-7-7-------5-5--7-7-7-7-------5-5-------------------|

   
   Caminando por el subterraneo
   Los humanos estan arriba del mundo


1|---------------------------------------------------------|
2|---------------------------------------------------------|
3|----------7-7-7--------------7-7-7-----------------------|
4|--9-9-9-9-7-7-7-7-7--9-9-9-9-7-7-7-7-7-------------------|
5|--9-9-9-9-5-5-5-7-7--9-9-9-9-5-5-5-7-7-------------------|
6|--7-7-7-7-------5-5--7-7-7-7-------5-5-------------------|


   No me gusta este mundo
   Y yo quiero salir de aqui



1|---------------------------------------------------------|
2|---------------------------------------------------------|
3|----------------7--7-------------------------------------|x8
4|--5-5-5-5-7-7-7-7--7-7-5---------------------------------|
5|--5-5-5-5-7-7-7-5--5-7-5---------------------------------|
6|--3-3-3-3-5-5-5------5-3---------------------------------|


   Me converti en un marciano
   Uo , ho ho
   Y me llaman por mi nombre
   Uo , ho ho
   Por las noches no puedo dormir
   Uo , ho ho
   Me converti en un marciano


1|---------------------------------------------------------|
2|---------------------------------------------------------|
3|---------------------------------------------------------|x4
4|--7-7-7-7-5-5-5-5----------------------------------------|
5|--7-7-7-7-5-5-5-5----------------------------------------|
6|--5-5-5-5-3-3-3-3----------------------------------------|




1|---------------------------------------------------------|
2|---------------------------------------------------------|
3|----------------7--7-------------------------------------|x8
4|--5-5-5-5-7-7-7-7--7-7-5---------------------------------|
5|--5-5-5-5-7-7-7-5--5-7-5---------------------------------|
6|--3-3-3-3-5-5-5------5-3---------------------------------|



   Me converti en un marciano
   Uo , ho ho
   Y me llaman por mi nombre
   Uo , ho ho
   Por las noches no puedo dormir
   Uo , ho ho
   Me converti en un marciano
   Uo , ho ho
   Por las noches no puedo dormir
   Me converti en un marciano
   Uo , ho ho
   Uo , ho ho
            
Submit corrections

comments powered by Disqus
↑ Back to top | 2 Minutos Tabs for Meconverti En Un Marciano. Lyrics for acoustic guitar and electric guitar. 1 Tablatures and chords are parodies/interpretations of the original songs. You may use it for private study, scholarship, research or language learning purposes only