» » »

2 Minutos, Disneylandia Bass tabs (ver.1)

Artists:  A B C D E F G H I J K L M N O P Q R S T U V W X Y Z # 

Disneylandia Bass tabs (ver.1)

2 Minutos Tabs
Rating:
0/5 (0 votes)
Disneylandia lessons Tabs too difficult? Try these video lessons and learn fast
                Intro
G|------------------|x2
D|------------------|
A|---5------555-777-|
E|-5---7-55---------|

Verso
G|-------------------|x4
D|-------------------|
A|-----------555-777-|
E|-55-7-5-55---------|

Coro
G|-------------------|x4
D|-------------------|
A|-----------555-777-|
E|-55-7-5-55---------|

Puente
G|-------------------|x4
D|-------------------|
A|-------------------|
E|-77-6-5--55-44-5-6-|

Verso
G|-------------------|x4
D|-------------------|
A|-----------555-777-|
E|-55-7-5-55---------|

Coro
G|-------------------|x4
D|-------------------|
A|-----------555-777-|
E|-55-7-5-55---------|

Puente
G|-------------------|x4
D|-------------------|
A|-------------------|
E|-77-6-5--55-44-5-6-|

Puente 2 ('Oh oh oh oh...')
G|--------------------------|x4
D|--------------------------|
A|--------------------------|
E|-555555555555555555555555-|

Coro
G|-------------------|x8
D|-------------------|
A|-----------555-777-|
E|-55-7-5-55---------|

Puente
G|-------------------|x4
D|-------------------|
A|-------------------|
E|-77-6-5--55-44-5-6-|
            

comments powered by Disqus
↑ Back to top | 2 Minutos Bass for Disneylandia. Lyrics for acoustic guitar and electric guitar. Tablatures and chords are parodies/interpretations of the original songs. You may use it for private study, scholarship, research or language learning purposes only