» » »

28 Days, Tunnel Vision Tabs (ver.1)

Artists:  A B C D E F G H I J K L M N O P Q R S T U V W X Y Z # 

Tunnel Vision Tabs (ver.1)

28 Days Tabs
 Rating:
4/5 (5 votes)
Tunnel Vision lessons Tabs too difficult? Try these video lessons and learn fast
                one of there best


you will have to listen to the song for the correct timing

intro

 E|-----------|--------------------------------------------------------------
 b|-----------|-------------------------------------------------------------- 
 g|-----------|--------------------------------------------------------------
 d|-----------|-----------2---------------------------2---5-5-4-4------------
 a|--4--let---|-4-------4-0---4-------4-2---4-------4-0---3-3-2-2------------
 e|--2--ring--|-2-0-2-0-2-----2-0-2-0-2-0---2-0-2-0-2------------------------
                                                         pm  pm


   bass plays most of the verse but at the end of the line the guitar plays

   verse
  E|-----------
  b|-----------
  g|-----------
  d|-5-5-4-4---
  a|-3-3-2-2---
  e|-----------

     pre chorus
  E|---------------------------------------------------------------------
  b|---------------------------------------------------------------------
  g|---------------------------------------------------------------------
  d|---------------------------------------------------------------------
  a|--4-4-4-4-4-4-4-4-4-4-4-4-4-4-4-4--5-5-5-5-5-5-5-5-5-5-5-5-5-5-5-5---
  e|--2-2-2-2-2-2-2-2-2-2-2-2-2-2-2-2--3-3-3-3-3-3-3-3-3-3-3-3-3-3-3-3---
       pm...........................    pm...........................


     chorus

  E|-------------------------
  b|-------------------------
  g|-------------------------
  d|-----9-7-7-4-2-4---------
  a|-2-2-7-5-5-2-0-2---------
  e|-0-0---------------------


    bridge

  E|---------------------------------------------
  b|-----7-----5-----5---7-----------------------
  g|---------------------------------------------
  d|--4-----4-----4------------------------------
  a|---------------------------------------------
  e|---------------------------------------------


      riff 2

  E|---------------------------------------------
  b|---------------------------------------------
  g|---------------------------------------------
  d|---------------------------------------------
  a|--4-4-4-4-5--4-4-4-4-5-2--4-4-4-4-5----------
  e|--2-2-2-2-3--2-2-2-2-3-0--2-2-2-2-3----------

      riff 3

  E|-------------------------------------
  b|-------------------------------------
  g|--9-9--------------------------------
  d|------9------------------------------
  a|--------9-9-9-9----------------------
  e|-------------------------------------
all of riff 3 is natural harmonic and played really quick after the second time of riff 2

    ending

  E|------------------
  b|------------------
  g|------------------
  d|----2-4-5---------
  a|-2--0-2-3-2-------
  e|-0--------0-------


song layout

intro      x2      0:00
verse      x4      0:28
pre chorus x1      0:43
chorus     x8      0:49
verse      x4      1:15
intro      x2      1:31
pre chorus x1      1:40
chorus     x8      1:46
bridge     x8      2:07
riff 2     x2      2:37
riff 3     x1      2:45
riff 2     x3      2:47
chorus     x8      3:02
ending     x1      3:22
            
Submit corrections

comments powered by Disqus
↑ Back to top | 28 Days Tabs for Tunnel Vision. Lyrics for acoustic guitar and electric guitar. Tablatures and chords are parodies/interpretations of the original songs. You may use it for private study, scholarship, research or language learning purposes only