» » »

28 Days, True Story Tabs (ver.1)

Artists:  A B C D E F G H I J K L M N O P Q R S T U V W X Y Z # 

True Story Tabs (ver.1)

28 Days Tabs
 Rating:
4/5 (4 votes)
True Story lessons Tabs too difficult? Try these video lessons and learn fast
1
                28 DAYS
STEALING CHAIRS
TRUE STORY

NORMAL TUNNING
--------------

INTRO                                                "lets go"
|------------------|------------------------------|---------------|
|------------------|------------------------------|---------------|
|--9--99/11\9------|--99-9-9--99-9-9-99/11\9------|--9-9-7-9------|
|--X--XX--X-X------|--XX-X-X--XX-X-X-XX--X-X------|--9-9-7-9------|
|--7--77/-9\7------|--77-7-7--77-7-7-77/-9\7------|--7-7-7-7------|
|--------------X3--|--------------------------x4--|--0-0-0-0--x8--|

VERSE(not exact strumming, strum easch chord about 10x)
|--------------------|
|--------------------|
|--------------------|
|--9-----------------|
|--7----9----4----2--|
|-------7----2----0--|x2 - PLAM MUTE THE E5 INTO THE CHORUS 

CHORUS (not exact strummin)                        Break into verse2
|--------------------------------------------------|-------------|
|--------------------------------------------------|-------------|
|--------------------------------------------------|-------------|
|-------9---------------9-----------9--------------|--9-9-9-9-9--|
|--2----7----9----4-7---7----4-7-2--7----4-7-2-----|--7-7-7-7-7--|
|--0---------7----2-5--------2-5-0-------2-5-0-X2--|-------------|
PM...            ...

VERSE 2 - SAME
---------------
CHORUS 2 - SAME
---------------
BRIDGE/OUTRO
|---------------------------------|--------------------------|--
|---------------------------------|--------------------------|--
|---------------------------------|--------------------------|--
|---------------------------------|--9-9-7-7-6--7-7--6-7-----|--
|--9h11-7--9h11-7--9h11-7--9h11-7-|--------------------------|--
|---------------------------------|---------------------x4---|--

------------------------------|-----|
------------------------------|-----|
--99-9-9--99-9-9-99/11\9------|--9--|
--XX-X-X--XX-X-X-XX--X-X------|--9--|
--77-7-7--77-7-7-77/-9\7------|--7--|
--------------------------x8--|-----|finish

                            MELBOURNE PRIDE
            
Submit corrections

comments powered by Disqus
↑ Back to top | 28 Days Tabs for True Story. Lyrics for acoustic guitar and electric guitar. 1 Tablatures and chords are parodies/interpretations of the original songs. You may use it for private study, scholarship, research or language learning purposes only