» » »

28 Days, Sucker Tabs (ver.1)

Artists:  A B C D E F G H I J K L M N O P Q R S T U V W X Y Z # 

Sucker Tabs (ver.1)

28 Days Tabs
Rating:
4/5 (2 votes)
Sucker lessons Tabs too difficult? Try these video lessons and learn fast
                Subject - 2/28_days/sucker
Artist - 28 Days
Title - Sucker


This is a brilliant song, which is also very easy to play. 
I am declaring this file all of my own work
Play with heavy distortion
ENJOY!!!!

Legend
------
x - scratch
: - let ring
pm - palm mute


Intro
E --------       -----------------------------------
B --------       -----------------------------------
G --------       -----------------------------------
D -4-2-4:-       -----------------------------------
A -4-2-4:- x2    -----------------------------------    (and extra note
E -2-0-2:-       ---2-2-2-2-2-2-2-2-2-2-2-2-2-2-2-2- x4 after fourth time)

Main Riff
E -----------------------------
B -----------------------------
G -------------------2-2-2-----
D -4-4-2-4-4-2-4-4-2-2-2-2-5-5- x4       (let end note ring
A -4-4-2-4-4-2-4-4-2-0-0-0-5-5-          after fourth time)
E -2-2-0-2-2-0-2-2-0-------3-3-

Verse
E -----------------------------
B -----------------------------
G -----------------------------
D -4:----------4:---------4:---
A -4:----------4:---------4:---
E -4:----------4:---------2:---

Pre-chorus
E -----------------------------
B -----------------------------
G -----------------------------
D -----------------------------
A -----------------------------
E -2-2-2-2-2-2-2-2-------------

Chorus
E -----------------------------------------------------------------
B -----------------------------------------------------------------
G ---------------------------------4-4-4-4-2-2-2-2-4-4-4-4-6-6-2-2-
D -4-4-4-4-2-2-2-2-4-4-4-4-2-2-2-2-4-4-4-4-2-2-2-2-4-4-4-4-6-6-2-2- x2
A -4-4-4-4-2-2-2-2-4-4-4-4-2-2-2-2-2-2-2-2-0-0-0-0-2-2-2-2-4-4-0-0-
E -2-2-2-2-0-0-0-0-2-2-2-2-0-0-0-0---------------------------------

Play Main riff again x4
Play Verse again x1
Play Pre-chorus again x1
Play Chorus again x2

Fill
E -----------------------------
B -----------------------------
G -----------------------------
D -4-5-4-5-2------------------- x2
A -4-5-4-5-2-------------------
E -2-3-2-3-0-------------------

Solo (while Fill is playing x6)
E ----9:-8:-14:-9:----9:-------
B -7:--------------7:----------
G -----------------------------
D -----------------------------
A -----------------------------
E -----------------------------

Fill 2
E -----------------------------
B -----------------------------
G -----------------------------
D -4-4-5----------------------- x4
A -4-4-5-----------------------
E -2-2-3-----------------------

Fill 3
E -----------------------------
B -----------------------------
G -----------------------------
D -4---------------------------
A -4---------------------------
E -2---------------------------

Play chorus again x2

Chorus Variation
E --------------------------------
B --------------------------------
G -------------------4-4-x-x-x-2-2 
D -4-4-x-x-x-2-2-----4-4-x-x-x-2-2 x4
A -4-4-x-x-x-2-2-----2-2-x-x-x-0-0
E -2-2-x-x-x-2-2---------x-x-x----

Ending
E --------------------------------
B --------------------------------
G --------------------------------
D -4-5-4-5-2:---------------------
A -4-5-4-5-2:---------------------
E -2-3-2-3-0:---------------------
            

comments powered by Disqus
↑ Back to top | 28 Days Tabs for Sucker. Lyrics for acoustic guitar and electric guitar. Tablatures and chords are parodies/interpretations of the original songs. You may use it for private study, scholarship, research or language learning purposes only