» » »

Rip It Up Tabs (ver.1)

Artists:  A B C D E F G H I J K L M N O P Q R S T U V W X Y Z # 

Rip It Up Tabs (ver.1)

28 Days
Rating:
4/5 (6 votes)

Hard to play? Try these video lessons and learn fast.
                

Intro
 E|-------------------------------------|
 B|-------------------------------------|
 G|---------4-4-----6/76---4/64-4-------|
 D|-6-6-----4-4-----6/76---4/64-4-------|
 A|-6-6-----2-2-----4/54---2/42-2-------|
 E|-4-4---------------------------------|

 Verse #1
 E|-------------------------------------|
 B|-------------------------------------|
 G|---------4-4-----6/76---4/64-4-------|
 D|-6-6-----4-4-----6/76---4/64-4-------|
 A|-6-6-----2-2-----4/54---2/42-2-------|
 E|-4-4---------------------------------|

 Verse #2
 E|-------------------------------------------------|
 B|-------------------------------------------------|
 G|---------4-4-----6-6-6-6-6-6-6-6-7-7-7-7-7-7-7-7-|
 D|-6-6-----4-4-----6-6-6-6-6-6-6-6-7-7-7-7-7-7-7-7-|
 A|-6-6-----2-2-----4-4-4-4-4-4-4-4-5-5-5-5-5-5-5-5-|
 E|-4-4---------------------------------------------|

 Chorus #1
 E|---------------------------------|
 B|---------------------------------|
 G|-4-4-4-4-------------------------|
 D|-4-4-4-4-6-6-6-6---5---5---5---5-|
 A|-2-2-2-2-6-6-6-6---5---5---5---5-|
 E|---------4-4-4-4-0-3-0-3-0-3-0-3-|
                  pm^^^^^^^^^^^^^^^
 Chorus #2
 E|---------------------------------|
 B|---------------------------------|
 G|-4-4-4-4---------6-6-6-6-9-9-9-9-|
 D|-4-4-4-4-6-6-6-6-6-6-6-6-9-9-9-9-|
 A|-2-2-2-2-6-6-6-6-4-4-4-4-7-7-7-7-|
 E|---------4-4-4-4-----------------|
 
 Chorus #3
 E|---------------------------------|
 B|---------------------------------|
 G|---------------------------------|
 D|-5-5-5-5-5-5-5-5-5-5-5-5-5-5-5-5-|
 A|-5-5-5-5-5-5-5-5-5-5-5-5-5-5-5-5-|
 E|-3-3-3-3-3-3-3-3-3-3-3-3-3-3-3-3-|

 Verse #3
 E|---------------------------------|
 B|---------------------------------|
 G|---------------------------------|
 D|-6~~-----------------------6-6-6-|
 A|-6~~-----------------------6-6-6-|
 E|-4~~-----------------------4-4-4-|

 Bridge #1
 E|---------------------------------|
 B|---------------------------------|
 G|---------------------------------|
 D|-------------5-6-7~~---7p5h7-6-5-|
 A|-7---7---7-7---------------------|
 E|---------------------------------|

 Bridge #2
 E|---------------------------------|
 B|---------------------------------|
 G|---------------------------------|
 D|-------------5-6-7---------------|
 A|-7---7---7-7---------------------|
 E|---------------------------------|

 Outro
 E|--------------------|
 B|--------------------|
 G|--------------------|
 D|-5-xx-5-5-xx-5-xx-5-|
 A|-5-xx-5-5-xx-5-xx-5-|
 E|-3-xx-3-3-xx-3-xx-3-|

 The order in which to play these tabs:
 Intro (4x)
 Verse #1 (3x)
 Verse #2 (1x)
 Chorus #1 (2x)
 Chorus #2 (1x)
 Chorus #3 (1x) 
 Verse #3 (1x)
 Verse #1 (4x)
 Verse #2 (1x)
 Chorus #1 (2x)
 Chorus #2 (1x)
 Chorus #3 (1x)
 Bridge #1 (5x)
 Bridge #2 (1x)
 Verse #1 (3x)
 Verse #2 (1x)
 
 Chorus #1 (2x)
 Chorus #2 (1x)
 Chorus #3 (2x)
 Chorus #1 (2x) 
 Chorus #2 (1x)  x2
 Chorus #3 (1x) /
 Outro (8x until fade)
-----------------------------------------------------------------
            
Hard to play? Try these video lessons and learn fast. | Correct




comments powered by Disqus
↑ Back to top | Tablatures and chords are parodies/interpretations of the original songs. You may use it for private study, scholarship, research or language learning purposes only