» » »

28 Days, Plastic Fucks Tabs (ver.1)

Artists:  A B C D E F G H I J K L M N O P Q R S T U V W X Y Z # 

Plastic Fucks Tabs (ver.1)

28 Days Tabs
 Rating:
4/5 (4 votes)
Plastic Fucks lessons Tabs too difficult? Try these video lessons and learn fast
1
                This is my favourite 28 days song. The verses/intro are palm muted.

e|---------|
B|---------|
G|---------|
D|-2-2-2-2-|  X4
A|-2-2-2-2-|
E|-0-0-0-0-|


e|-----------------------|-------------------------|-----|
B|-----------------------|-------------------------|-----|
G|-10-10-10-10-10-10-9-9-|-10-10-10-10-10-10-12-12-|--7--|
D|-x--x--x--x--x--x--x-x-|-x--x--x--x--x--x--x--x--|--x--|   x2
A|-8--8--8--8--8--8--7-7-|-8--8--8--8--8--8--10-10-|--5--|
E|-----------------------|-------------------------|-----|
		     (x1)		       (x1) (x16)

e|---------|
B|---------|
G|---------|
D|-2-2-2-2-|   x8
A|-2-2-2-2-|
E|-0-0-0-0-|

[I'm pretty sure between the verse and chorus, Hep plays an E chord (022100) on a wah 
You can either do that or pick slide. :)

e|-----------------------|-------------------------|-----|
B|-----------------------|-------------------------|-----|
G|-10-10-10-10-10-10-9-9-|-10-10-10-10-10-10-12-12-|--7--|
D|-x--x--x--x--x--x--x-x-|-x--x--x--x--x--x--x--x--|--x--|  x2
A|-8--8--8--8--8--8--7-7-|-8--8--8--8--8--8--10-10-|--5--|
E|-----------------------|-------------------------|-----|
		     (x1)		       (x1) (x16)

e|----------------|
B|-------12-------|
G|-12-13----12-13-| x1
D|----------------|
A|----------------|
E|----------------|

e|---------|
B|---------|
G|---------|
D|-2-2-2-2-|   x8
A|-2-2-2-2-|
E|-0-0-0-0-|


[Wah/Slide]

e|-----------------------|-------------------------|-----|
B|-----------------------|-------------------------|-----|
G|-10-10-10-10-10-10-9-9-|-10-10-10-10-10-10-12-12-|--7--|
D|-x--x--x--x--x--x--x-x-|-x--x--x--x--x--x--x--x--|--x--|  x2
A|-8--8--8--8--8--8--7-7-|-8--8--8--8--8--8--10-10-|--5--|
E|-----------------------|-------------------------|-----|
		     (x1)		       (x1) (x16)

e|----|----|-----|----|----|
B|----|----|-----|----|----|
G|-10-|-9--|--7--|-10-|-9--|
D|-x--|-x--|--x--|-x--|-x--|
A|-8--|-7--|--5--|-8--|-7--|
E|----|----|-----|----|----|
  (x8) (x8) (x16) (x8) (x8)


e|---------------------------------|
B|---------------------------------|
G|---------------------------------|
D|-2-2-2-2-6-6-6-6-5-5-5-5-5-5-5-5-| x4
A|-2-2-2-2-6-6-6-6-5-5-5-5-5-5-5-5-|
E|-0-0-0-0-4-4-4-4-3-3-3-3-3-3-3-3-|

e|----------------|
B|-------12-------|
G|-12-13----12-13-| x4
D|----------------|
A|----------------|
E|----------------|


(This time he really does play a pick slide)


e|-----------------------|-------------------------|-----|
B|-----------------------|-------------------------|-----|
G|-10-10-10-10-10-10-9-9-|-10-10-10-10-10-10-12-12-|--7--|
D|-x--x--x--x--x--x--x-x-|-x--x--x--x--x--x--x--x--|--x--|  x2
A|-8--8--8--8--8--8--7-7-|-8--8--8--8--8--8--10-10-|--5--|
E|-----------------------|-------------------------|-----|
		     (x1)		       (x1) (x16)


e|----|----|-----|----|----|
B|----|----|-----|----|----|
G|-10-|-9--|--7--|-10-|-9--|
D|-x--|-x--|--x--|-x--|-x--|
A|-8--|-7--|--5--|-8--|-7--|
E|----|----|-----|----|----|
  (x8) (x8) (x16) (x8) (x8)

e|---------------------------------|
B|---------------------------------|
G|---------------------------------|
D|-2-2-2-2-6-6-6-6-5-5-5-5-5-5-5-5-| x4
A|-2-2-2-2-6-6-6-6-5-5-5-5-5-5-5-5-|
E|-0-0-0-0-4-4-4-4-3-3-3-3-3-3-3-3-|

e|-------------|
B|-------------|
G|-------------|
D|-2-2-2-2-5-5-|
A|-2-2-2-2-5-5-|
E|-0-0-0-0-3-3-|
            
Submit corrections

comments powered by Disqus
↑ Back to top | 28 Days Tabs for Plastic Fucks. Lyrics for acoustic guitar and electric guitar. 1 Tablatures and chords are parodies/interpretations of the original songs. You may use it for private study, scholarship, research or language learning purposes only