» » »

28 Days, Never Give Up Bass tabs (ver.1)

Artists:  A B C D E F G H I J K L M N O P Q R S T U V W X Y Z # 

Never Give Up Bass tabs (ver.1)

28 Days Tabs
Rating:
0/5 (0 votes)
Never Give Up lessons Tabs too difficult? Try these video lessons and learn fast
                VERSE:
    G:---------------------------------------------------------------
    D:---------------------------------------------------------------
    A:--------------------------------------55-5-55-5-55-5-55--------
    E:--2-2--5--0-2-0-2--0-020--22--5--020---------------------------

    CHORUS:
    G:---------------------------------------------------------------
    D:---------------------------------------------------------------
    A:-------------------------5-(5)/7-77-3-2------------------------
    E:---2-22-2-22-2-22--5-4-----------------------------------------
 
                                       I'm not sure whether this E to
                                       C bit is accurate, but it fits
                                       harmonically.
    G:---------------------------------------------------------------
    D:---------------------------------------------------------------
    A:-------------------------5-------7-7-------3-3-----------------
    E:---2-22-2-22-2-22--5-4-----------------------------------------
            
Submit corrections

comments powered by Disqus
↑ Back to top | 28 Days Bass for Never Give Up. Lyrics for acoustic guitar and electric guitar. Tablatures and chords are parodies/interpretations of the original songs. You may use it for private study, scholarship, research or language learning purposes only