» » »

Kool Bass tabs (ver.1)

Artists:  A B C D E F G H I J K L M N O P Q R S T U V W X Y Z # 

Kool Bass tabs (ver.1)

28 Days
Rating:
0/5 (0 votes)

Hard to play? Try these video lessons and learn fast.
                SONG/KOOL
BAND/28 DAYS

INTRO
G:676-676-676--------
D:---7---7---7-------
A:--------------2223-
E:------------23-----

VERSE
G:------------------------
D:-------------454--------
A:5-55-55-55-55---5--2223-
E:-----------------23-----

PRE CHORUS
G:---------------------------
D:---------------------------
A:---------------------------
E:3-3-33-3/5-5-55-5/7-7-77-7-

G:------------------7911-
D:5-5-55-5/77-77-7/9-----
A:-----------------------
E:-----------------------

CHORUS
G:-----------
D:-----------
A:*4/5-2-22--
E:---------3-
            
Hard to play? Try these video lessons and learn fast. | Correct




comments powered by Disqus
↑ Back to top | Tablatures and chords are parodies/interpretations of the original songs. You may use it for private study, scholarship, research or language learning purposes only