» » »

Friends Tabs (ver.1)

Artists:  A B C D E F G H I J K L M N O P Q R S T U V W X Y Z # 

Friends Tabs (ver.1)

28 Days
Rating:
0/5 (0 votes)

Hard to play? Try these video lessons and learn fast.
                28 DAYS
SELF TITLED
FRIENDS

NORMAL TUNING

(5) = harmonic at 5th fret

INTRO/ VERSE

|-------------------------------------------|
|-------------------------------------------|
|-------------------------------------------|
|------------------7-7-7-7-9-9-9------------|
|--7-7-7-7-7-10-10-5-5-5-5-7-7-7-5-5-5-5-5--|
|--5-5-5-5-5--8--8---------------3-3-3-3-3--|x heaps

BREAK
|---------------------------------------------------------|
|---------------------------------------------------------|
|---------------------------------------------------------|
|---------------------------------------------------------|
|--7--------------------------7---------------------------|
|--5-(5)(5)(5)(5)(5)(5)(5)(5)-5-(5)(5)(5)(5)(5)(5)(5)(5)--|

CHORUS
|-----------------------------|----------------------------|
|-----------------------------|----------------------------|
|-----------------------------|----------------------------|
|-----------------------------|----------------------------|
|--7-7-7-7-7-5-5-5-5-5--------|--7-7777-7/5-5555-5\--------|
|--5-5-5-5-5-3-3-3-3-3--[x4]--|--5-5555-5/3-3333-3\--[x4]--|
                              pm.....................

The order is pretty easy to work out, the song only goes for 1 min & 1/2.
            
Hard to play? Try these video lessons and learn fast. | Correct




comments powered by Disqus
↑ Back to top | Tablatures and chords are parodies/interpretations of the original songs. You may use it for private study, scholarship, research or language learning purposes only