» » »

Early Mornings Tabs (ver.1)

Artists:  A B C D E F G H I J K L M N O P Q R S T U V W X Y Z # 

Early Mornings Tabs (ver.1)

28 Days
Rating:
0/5 (0 votes)

Hard to play? Try these video lessons and learn fast.
                28 DAYS
STEALING CHAIRS
EARLY MORNINGS

NORMAL TUNNING
--------------
INTRO (clean)                  INTRO/VERSE (distorted)
|----------------------------|----------------------------------------|--
|----------------------------|----------------------------------------|--
|--6---6--6--6---6--6--------|---------------------------9-9-9-9-8----|--
|--X---------X---------------|--6-6--4-4-4-4-4-2-2-------X-X-X-X-X----|--
|--4--4--4---4--4--4---etc.--|--4-4--4-4-4-4-4-2-2--4-4--7-7-7-7-6----|--
|----------------------------|----------------------2-2------------x6-|--
                                    pm...........
            PRE-CHORUS                      
--------|------------------------------------------|
--------|-----------------10-10-10-10--------------|
--6--6--|------------------X--X--X--X--------------|
--X--X--|-6-6-6-6-9-9-9-9--7--7--7--7-11-11-11-11--|
--4--4--|-4-4-4-4-7-7-7-7--------------9--9--9--9--|
--------|------------------------------------------|x2

CHORUS
|-----------------------------------|
|-----------------------------------|
|-----------------------------------|
|--6-6-6-6---------9-9-9-9----------|
|--4-4-4-4-4-4-4-4-7-7-7-7-6-6-6-6--|
|----------2-2-2-2---------4-4-4-4--|x4

VERSE 2 - SAME
---------------
PRE-CHORUS - x4
---------------
 BRIDGE                                           
|---------------------|----------------|
|---------------------|----------------|
|--6--8/9\8/9\8-6-----|--6--9-11--9----|
|--X--X-X-X-X-X-X-----|--X--X--X--X----|
|--4--6/7\6/7\6-4-----|--4--7--9--7----|
|-----------------x2--|------------X9--|
                 WAH WAH...........

CHORUS x4
--------------
OUTRO (chorus chords)x4
--------------

                          MELBOURNE PRIDE
            
Hard to play? Try these video lessons and learn fast. | Correct




comments powered by Disqus
↑ Back to top | Tablatures and chords are parodies/interpretations of the original songs. You may use it for private study, scholarship, research or language learning purposes only