» » »

28 Days, Democracy Tabs (ver.1)

Artists:  A B C D E F G H I J K L M N O P Q R S T U V W X Y Z # 

Democracy Tabs (ver.1)

28 Days Tabs
 Rating:
4.2/5 (5 votes)
Democracy lessons Tabs too difficult? Try these video lessons and learn fast
                credits to someone else for this tab.

. = palm mute the note above this symbol
~ = let the note to the left of this symbol ring
_ = rest

(intro)
e|-----------------------------|-----------------------------|
B|-----------------------------|-----------------------------|
G|-----------------------------|-----------------------------|
D|-------7-7-----------5-5-----|-------7-7-----------5-5-2-3-| (x 1)
A|-5-5-x-5-5-(5)-7-7-x-3-3-2-3-|-5-5-x-5-5-(5)-7-7-x-3-3-2-3-|
E|-3-3-x-----(5)-5-5-x-----0-1-|-3-3-x-----(5)-5-5-x-----0-1-|
. .

(chorus)
e|-----------------------------------|
B|-----------------------------------|
G|-------------7-7-7-------5-5-5-----| (x 4)
D|-5-5---------7-7-7-7-7-7-5-5-5-2-3-|
A|-5-5-2h3-2h3-5-5-5-7-7-7-3-3-3-2-3-|
E|-3-3---------------5-5-5-------0-1-|
. .

(verse)
e|----------------------------|----------------------------|
B|----------------------------|----------------------------|
G|-0-4-0-4-0-4-5-5-4-0-4-0-4~-|-0-4-0-4-0-4-7-7-5-4-5-4-0~-| (x2)
D|----------------------------|----------------------------|
A|----------------------------|----------------------------|
E|----------------------------|----------------------------|

(chorus x 4)

(verse 2)
e|----------------------------|----------------------------|
B|----------------------------|----------------------------|
G|-0-4-0-4-0-4-5-5-4-0-4-0-4~-|-0-4-0-4-0-4-7-7-5-4-5-4-0~-|
D|----------------------------|----------------------------|
A|----------------------------|----------------------------|
E|----------------------------|----------------------------|

e|----------------------------|----------------------------|
B|----------------------------|----------------------------|
G|-0-4-0-4-0-4-5-5-4-0-4-0-4~-|-0-4-0-4-0-4-5-_------------|
D|----------------------------|----------------------------|
A|----------------------------|----------------------------|
E|----------------------------|----------------------------|

(chorus, play through 6 times)

(interlude)
e|-----------------|-----------------------------|------------|
B|-----------------|-----------------------------|------------|
G|-7-7-7-7-5-5-5-5-|-0-0-0-0-0-2-0-0-0-2-4-5-4-0-|-7-7-7-7-5~-|
D|-7-7-7-7-5-5-5-5-|-----------------------------|-7-7-7-7-5~-|
A|-5-5-5-5-3-3-3-3-|-----------------------------|-5-5-5-5-3~-|
E|-----------------|-----------------------------|------------|
<--------------------- x3 -------------------->

(intro x1)

(chorus x6)

(outro)
e|-----------------------------|----|
B|-----------------------------|----|
G|-----------------------------|----|
D|-------7-7-----------5-5-2-3-|-5~-|
A|-5-5-x-5-5-(5)-7-7-x-3-3-2-3-|-5~-|
E|-3-3-x-----(5)-5-5-x-----0-1-|-3~-|
            
Submit corrections

comments powered by Disqus
↑ Back to top | 28 Days Tabs for Democracy. Lyrics for acoustic guitar and electric guitar. Tablatures and chords are parodies/interpretations of the original songs. You may use it for private study, scholarship, research or language learning purposes only