>
 >
A General

A General Guitar Tabs

28 Days - A General chords, tabs, tablatures, lyrics

Guitar lessons | Add/correct | Request | Top 50 tabs Artists:  A B C D E F G H I J K L M N O P Q R S T U V W X Y Z 0-9

A General Guitar Tabs – 28 Days

CD, Sheet music, Poster

Do you like A General? Share with your friends now
Tabs
28 DAYS
STEALING CHAIRS
A GENERAL

NORMAL TUNNING - (5) = harmonic @ 5th fret.
--------------

INTRO
|------------------------------------------------|
|------------------------------------------------|
|--7-77/9--7-77/9--7-77/9/11/12-12\11/12\11\9-7--|
|--X-XX-X--X-XX-X--X-XX-X--X--X--X--X--X--X-X-X--|
|--5-55/7--5-55/7--5-55/7/-9/10-10\-9/10\-9\7-5--|
|------------------------------------------------|x2

VERSE
|---------|--------------------------------------------|
|---------|--------------------------------------------|
|--7~-----|--7-77/9--7-77/9--7-77/9/11-11-11\9/11\9\7--|
|--X------|--X-XX-X--X-XX-X--X-XX-X--X--X--X-X--X-X-X--|
|--5~-----|--5-55/7--5-55/7--5-55/7/-9--9--9\7/-9\7\5--|
|----x20--|--------------------------------------------|x2

CHORUS (there are 2 guitars used in the recording)
|-----------------------------------------------------------------------|
|-----------------------------------------------------------------------|
|---------------------*12-12-11-11-9--------------------*12-12-11-11-9--|
|-----------------------X--X--X--X-X----------------------X--X--X--X-X--|
|--5-5-5-5-5-7-7-7-7-7-10-10--9--9-7-5-5-5-5-5-7-7-7-7-7-10-10--9--9-7--|
|--3-3-3-3-3-5-5-5-5-5---------------3-3-3-3-3-5-5-5-5-5----------------|

THEN REPEAT EVERYTHING AGAIN
-----------------
CHORUS 2 - x2 (in this guitar 2 is doing all the *)

BRIDGE
|--------------------------------------------------------------------
|--------------------------------------------------------------------
|--7~----------------------------------------------------------------
|--X---77--55--44-------------77-------(5)-55-(5)(5)----44------(5)--
|--5~--55--33--22--5-5-7-7-7--55-(5)(5)----33-------(5)-22-(5)(5)----
|------------------3-3-5-5-5-----------------------------------------

-------------|------------------|---------------------------------------|
-------------|------------------|---------------------------------------|
-------------|--12-11-7/11------|---------------------------------------|
-------------|---X--X-X--X------|--77------(5)-55-(5)(5)---44------(5)--|
--5-5-7-7-7--|--10--9-5/-9------|--55-(5)(5)---33------(5)-22-(5)(5)----|
--3-3-5-5-5--|---------x a few--|------------------------------------x2-|

CHORUS 3 - Is the notes that guitar 2 was doin previous (a little more detailed than i've tabbed....:)
-----------------
OUTRO - Just the bit from the bridge.

                        MELBOURNE PRIDE





Comments


Popular 28 Days tabs & chords
Sucker Bass Tabs
Take Me Away Chords
What's The Deal? Chords
Democracy Tabs
Know The Score Tabs
Kool Tabs
Plastic Fucks Tabs
Rip It Up Tabs
Sucker 2 Tabs
Whats The Deal (Intro) Tabs


Song lyrics



↑ Back to top | Tablatures and chords are parodies/interpretations of the original songs. You may use it for private study, scholarship, research or language learning purposes only
© 2014 AZChords.com Contact us | Privacy policy | DMCA | Add/correct tabs | Request tabs | Top 50 tabs