» » »

Oltre Il Confine Chords (ver.1)

Artists:  A B C D E F G H I J K L M N O P Q R S T U V W X Y Z # 

Oltre Il Confine Chords (ver.1)

270 Bis
Rating:
0/5 (0 votes)

Hard to play? Try these video lessons and learn fast.
                270 Bis - Oltre Il Confine


Intro: 

    Am                  C   
    
e|--0--0--0-0--0----0-0-0--------------------------|
B|--1--1--1-1--1----1-1-1--------------------------|
G|--2--2--2-2--2----2-2-0--------------------------|  x3
D|--2--2--2-2--0h2--2-2-2--------------------------|
A|--0--0--0-0--0----0-0-3--------------------------|
E|-------------------------------------------------|


   Am       

Verse:
       C                 Am          
Quando traverserai il confine
     C           Am
Mi intimarono la resa 
       C     G
ma non lo farò
F                         C   E
Strinsi la mia arma e fuggii


    Am                  C    Am
    
e|--0--0--0-0--0----0-0-0--------------------------|
B|--1--1--1-1--1----1-1-1--------------------------|
G|--2--2--2-2--2----2-2-0--------------------------|  
D|--2--2--2-2--0h2--2-2-2--------------------------|
A|--0--0--0-0--0----0-0-3--------------------------|
E|-------------------------------------------------|

      C           Am
Ho cambiato cento nomi
      C              Am 
perso moglie ed i bambini
        C          G
Ma c’è chi è con me 
F                C     E 
ho ancora molti amici


Eravamo tre stamani 
sono solo io stasera
E non mi arrenderò 
il mio futuro è una prigione


Ma ora il vento sta fischiando
Tra le sbarre sta fischiando
Libertà verrà 
e scaccerà le ombre


Ma ora il vento sta fischiando
Tra le sbarre sta fischiando
Libertà verrà 
e scaccerà le ombre 
            
Hard to play? Try these video lessons and learn fast. | Correct




comments powered by Disqus
↑ Back to top | Tablatures and chords are parodies/interpretations of the original songs. You may use it for private study, scholarship, research or language learning purposes only