» » »

270 Bis, Ehi Guardia Tabs (ver.1)

Artists:  A B C D E F G H I J K L M N O P Q R S T U V W X Y Z # 

Ehi Guardia Tabs (ver.1)

270 Bis Tabs
Rating:
3/5 (2 votes)
Ehi Guardia lessons Tabs too difficult? Try these video lessons and learn fast
                270 Bis - Ehi! Guardia

Guardia guardia
che cazzo ti guardi
che cazzo ti guardi guardia?

Guardia guardia
che cazzo ti guardi
che cazzo ti guardi guardia?

    G           D            C          D
e|------------------------------------------------------|
B|--------3---------7-------------5---------7-----------|
G|-----4-----4----7----7--------5---5-----7----7--------|  x2
D|--5-----------7--------7----5---------7--------7------|
A|------------------------------------------------------|
E|------------------------------------------------------|


G                   D
Ti pavoneggi con la tuta blu
C             D
piccolo Rambo di città
G                       D
tra te e un coatto di periferia
C                    D
sai dirmi un po' che differenza fa?

G                   D          
la differenza te la dico io
C                 D
non è difficile da svelare
G                  D    
tu preferisci fare l'aguzzino
C                          D
perché non hai il coraggio di rubare


Refrain:
G                   C
Oh - Eh - Oh - Eh - Ah
D
Guardia , guardia

G                   C
Oh - Eh - Oh - Eh - Ah
D
Servo del sistema
G                   C
Oh - Eh - Oh - Eh - Ah
D
Guardia, guardia
G                   C
Oh - Eh - Oh - Eh - Ah
D
Guardati alle spalle!


Un tempo far la guardia e far la spia
era un bel sintomo d'infamità
adesso a furia di farci dei film
ti han restituito anche la dignità

e adesso puoi angariare quanto vuoi
sei un rispettabile cittadino
la gente tollera i misfatti tuoi
e non gli importa se sei un assassino

Oh - Eh - Oh - Eh - Ah
Guardia, guardia
Oh - Eh - Oh - Eh - Ah
Servo del sistema
Oh - Eh - Oh - Eh - Ah
Guardia, guardia
Oh - Eh - Oh - Eh - Ah
Guardati alle spalle! 

    G           D             C         D
e|------------------------------------------------------|
B|--------3---------3-------------5---------7-----------|
G|-----4-----4----4----4--------5---5-----7----7--------| 
D|--5-----------5--------5----5---------7--------7------|
A|------------------------------------------------------|
E|------------------------------------------------------|
(keep playing until end.)

G
Guardia guardia, che cazzo ti guardi
    C               D
che cazzo ti guardi guardia? 

G
Guardia guardia, che cazzo ti guardi
    C               D
che cazzo ti guardi guardia? 


Refrain
            

comments powered by Disqus
↑ Back to top | 270 Bis Tabs for Ehi Guardia. Lyrics for acoustic guitar and electric guitar. Tablatures and chords are parodies/interpretations of the original songs. You may use it for private study, scholarship, research or language learning purposes only