» » »

270 Bis, Claretta E Ben Tabs (ver.1)

Artists:  A B C D E F G H I J K L M N O P Q R S T U V W X Y Z # 

Claretta E Ben Tabs (ver.1)

270 Bis Tabs
 Rating:
4.3/5 (6 votes)
Claretta E Ben lessons Tabs too difficult? Try these video lessons and learn fast
                Guitar or bass during the intro:

   G      D       Em     C
e|--------------------------------------------------------------------|
B|--------------------------------------------------------------------|
G|--------------------------------------------------------------------|
D|------------4------5------------------------------------------------|
A|-----2----5--5---7--7---3--5--7-------------------------------------|
E|--3---3-------------------------------------------------------------|



G              D
Su svegliatevi, riscuotetevi
Em                    C
vedo in cielo come una bandiera
G              D
come un'aquila, tra le nuvole
Em                C
che riaffiora dalla memoria

forse è un inno, o solo un sogno
il ricordo di una canzone
ma ora sale sai, come il ritmo
di una marcia dentro al mio cuore

Solo:
   G      D     Em       C           
e|-10--7--8--------7-10-----7-8----------------------------------------|
B|----------10---8--------8--------------------------------------------|
G|---------------------------------------------------------------------|
D|---------------------------------------------------------------------|
A|---------------------------------------------------------------------|
E|---------------------------------------------------------------------|

During solo 2nd guitar:
  G      D       Em     C
e|--------------------------------------------------------------------|
B|--------------------------------------------------------------------|
G|--------------------------------------------------------------------|
D|------------4------5------------------------------------------------|
A|-----2----5------7------3--5--7-------------------------------------|
E|--3-----------------------------------------------------------------|



G               D    
Han ballato sui loro corpi
Em              C
han sputato sul loro nome
han nascosto le loro tombe
ma non li possono cancellare

puoi vederli sai, sono tutti qui
con le braccia levate al Sole
sono tutti qui, io li vedo
piovon fiori su piazzale Loreto

Solo

E' una piazza piena di sogni
un'armata di cari amici
mille anime di caduti
ma nel ricordo non li hanno uccisi

sono i giovani di Acca Larentia
ed i ragazzi in camicia nera
i fratelli di Primavalle
ed i martiri dell'Emilia

E ora sono qui son per sempre qui
son tornati a marciare ancora
dalle carceri, dalle foibe
dagli scrigni della memoria

mille innanzi a me, mille dietro
ed altri mille per ogni lato
è difficile, ma ci credo
piovon fiori su piazzale Loreto


G D  Em             C
E io    ho il cuore nero
G       D          Em            C
e tanta gente mi vorrebbe al cimitero

Ma io ho il cuore nero
e me ne frego e sputo in faccia al mondo intero

Solo 
            
Submit corrections

comments powered by Disqus
↑ Back to top | 270 Bis Tabs for Claretta E Ben. Lyrics for acoustic guitar and electric guitar. Tablatures and chords are parodies/interpretations of the original songs. You may use it for private study, scholarship, research or language learning purposes only