» » »

22-20s, Messed Up Tabs (ver.1)

Artists:  A B C D E F G H I J K L M N O P Q R S T U V W X Y Z # 

Messed Up Tabs (ver.1)

22-20s Tabs
 Rating:
4.2/5 (5 votes)
Messed Up lessons Tabs too difficult? Try these video lessons and learn fast
                
d:downstroke
u:upstroke
pm:palm muted

x:ghost note
/:slide
~:ring

intro:
e-----------------------------------------------|
B-----------------------------------------------|
G-----------------------------------------------|
D--9-9-x-777-9-x-12~-9-777-9-12-----------------|
A--9-9-x-777-9-x-12~-9-777-9-12-----------------|
E--7-7-x-555-7-x-10~-7-555-7-10-----------------|
   d d   dud d   d   u dud d d
 
verse:same as intro

chorus:

part 1:after "well I didn't mean...to make a fool of you..."

e-----------------------------------------------|
B-----------------------------------------------|
G-----------------------------------------------|
D--9-9-x-777-9-x-1414-x-12-1212-----------------|
A--9-9-x-777-9-x-1414-x-12-1212-----------------|
E--7-7-x-555-7-0-1212-0-10-1010-----------------|
   d d   dud d   d d     d d d

part 2: "yeah but our god messed up,..."
 
e-----------------------------------------------|
B-----------------------------------------------|
G-----------------------------------------------|
D--9-9-9-9-9-9-9-9-9-/7-7-----------------------|
A--9-9-9-9-9-9-9-9-9-/7-7-----------------------|
E--7-7-7-7-7-7-7-7-7-/5-5-----------------------|
   d d d d d d d d d  u d
     ---->hit strings hard for a better sound

thats it!
messed up!
            
Submit corrections

comments powered by Disqus
↑ Back to top | 22-20s Tabs for Messed Up. Lyrics for acoustic guitar and electric guitar. Tablatures and chords are parodies/interpretations of the original songs. You may use it for private study, scholarship, research or language learning purposes only