» » »

22 Days Bass tabs (ver.1)

Artists:  A B C D E F G H I J K L M N O P Q R S T U V W X Y Z # 

22 Days Bass tabs (ver.1)

22-20s
Rating:
0/5 (0 votes)

Hard to play? Try these video lessons and learn fast.
                22-20s

I'm Not 100% On This But It's The Right Chords Being Played And It Sounds Good.
Awesome Song. Great Single. Rate This.

Verse Riff
G---------------|
D---------------|
A--5-7-----5-7-7|
E0-----0--------|
 1 + 2 + 3 + 4 +


Chorus Riff
G---------------|---------------|
D---------------|------------4-5|
A---------------|---------------|
E5-5-5-5-4-4-4-4|3-3-3-3-2-2----|
 1 + 2 + 3 + 4 +|1 + 2 + 3 + 4 +|
            
Hard to play? Try these video lessons and learn fast. | Correct




comments powered by Disqus
↑ Back to top | Tablatures and chords are parodies/interpretations of the original songs. You may use it for private study, scholarship, research or language learning purposes only