» » »

1 Brick Short, Here With Me Bass tabs (ver.1)

Artists:  A B C D E F G H I J K L M N O P Q R S T U V W X Y Z # 

Here With Me Bass tabs (ver.1)

1 Brick Short Tabs
Rating:
4/5 (1 vote)
Here With Me lessons Tabs too difficult? Try these video lessons and learn fast
                          
          
          Verse:
          G-----------------------------------------------------------|
          D-----------------------------------------------------------|
          A----------2-22-222--3-3-333--------------------------------|
          E-3-3-333---------------------3-33-333----------------------|
          
          Chorus: (really easy!)
          G-----------------------------------------------------------|
          D-----------------------------------------------------------|
          A----------------------------------------------------33-----|
          E-5-5-5-55555-5-5--3-3-3-33333-3-3--1-1-1-11111-1-1------33-|
          
          Interlude: (intro riff on bass plus chorus)
          G-----------------------------------------------------------|
          D--------0-3-2--------0-3-2--------0-3-2--------------------|
          A-5-7-3-----------7-3----------7-3-------3-3-3-333----------|
          E---------------3------------1---------------------333------|
          
            
Submit corrections

comments powered by Disqus
↑ Back to top | 1 Brick Short Bass for Here With Me. Lyrics for acoustic guitar and electric guitar. Tablatures and chords are parodies/interpretations of the original songs. You may use it for private study, scholarship, research or language learning purposes only