>
 >
Censor The Censors

Censor The Censors Guitar Tabs

1 Brick Short - Censor The Censors chords, tabs, tablatures, lyrics

Guitar lessons | Add/correct | Request | Top 50 tabs Artists:  A B C D E F G H I J K L M N O P Q R S T U V W X Y Z 0-9

Censor The Censors Guitar Tabs – 1 Brick Short

CD, Sheet music, Poster

Do you like Censor The Censors? Share with your friends now
Tabs
          Band: 1 Brick Short
          
          Intro 
          e-------------------------------------------------------|
          B-------------------------------------------------------|
          G-------------------------------------------------------|
          D---------------------------------------141414-13-13-13-|
          A---------121212-11-11-11--11-11-111111-----------------|
          E-9-9-999-----------------------------------------------|
          
          Verse (play palm muted the first time)
          e-----------------------------------------|
          B-----------------------------------------|
          G-----------------------------------------|
          D-xx11>-xx7>-xx9>--xx11>-xx14>-xx13/1413-|
          A-xx11>-xx7>-xx9>--xx11>-xx14>-xx13/1413-|
          E-xx9>--xx5>-xx7>--xx9>--xx12>-xx11/1211-|
          
          Chorus 
          e------------------------------------------------------------|
          B------------------------------------------------------------|
          G------------------------------------------------------------|
          D-------------------------11--------------141414-13-12-13-11-|
          A---------121212-11-12-11----11-11-111111--------------------|
          E-9-9-999----------------------------------------------------|
          
          Bridge (in between chorus and verse) 
          e----------------------------------------------------|
          B----------------------------------------------------|
          G----------------------------------------------------|
          D----------------------------------------------------|
          A-----1212-11-----1212-11------1212-11-------1212-11-|
          E-9-9----------9-9----------7-7----------9-9---------|
          
          Solo part 1
          e-------------------------------------------------------|
          B-------------------------------------------------------|
          G-------------------------------------------------------|
          D-11-11-1414-13-11-11-1414-13-9-9-1414-13-11-11-1414-13-|
          A-------------------------------------------------------|
          E-------------------------------------------------------|
          
          Solo part 2
          e-----------------------------------------------------|
          B-----------------------------------------------------|
          G-----------------------------------------------------|
          D-11-11-1414-13-11-11-1414-13-9-9-1414-13-7-7-1414-13-|
          A-----------------------------------------------------|
          E-----------------------------------------------------|
          
          Solo part 3 
          e-------------------------------------------------------|
          B-------------------------------------------------------|
          G-----------------------------------------13-----13-----|
          D-141311-141311-13119-13119-141311-141311---1311---1311-|
          A-------------------------------------------------------|
          E-------------------------------------------------------|
          
          Interlude
          e-------------------------------------|
          B-------------------------------------|
          G-------------------------------------|
          D-11>--7>--9>--11>--14>--13-13-14--13-|
          A-11>--7>--9>--11>--14>--13-13-14--13-|
          E-9>---5>--7>--9>---12>--11-11-12--11-|
          
          -Song Order-
          
          intro-x2
          verse-x2
          chorus-x2
          bridge-x2
          verse-x2
          chorus-x2
          bridge-x2
          solo part 1-x2
          solo part 2-x2
          solo part 3-x2
          interlude-x2





Comments


Popular 1 Brick Short tabs & chords
Cream Of Muschroom Soup Bass Tabs
Here With Me Bass Tabs


Song lyrics



↑ Back to top | Tablatures and chords are parodies/interpretations of the original songs. You may use it for private study, scholarship, research or language learning purposes only
© 2014 AZChords.com Contact us | Privacy policy | DMCA | Add/correct tabs | Request tabs | Top 50 tabs