» »

/0-9/1997-tabs-29600.html

»

Water's Edge Tabs (ver.1)

Artists:  A B C D E F G H I J K L M N O P Q R S T U V W X Y Z # 

Water's Edge Tabs (ver.1)

1997
Rating:
0/5 (0 votes)

Hard to play? Try these video lessons and learn fast.
                -----------------------------------------------------------------------
                             Water’s Edge - 1997
-----------------------------------------------------------------------

Tuning: Drop D

Intro/Chorus:
e|--------------------------------------------------------------------|
B|--------------------------------------------------------------------|
G|------------------------------------9-9-\-6-6----------------X2-----|
D|-0--4-4--7-7--6-6--7-7--7-7-7--0-0--x-x---x-x--2-2-2-2-2------------|
A|-0--4-4--4-4--4-4--7-7--7-7-7--0-0--7-7-\-4-4--2-2-2-2-2------------|
E|-0--4-4--4-4--4-4--7-7--7-7-7--0-0-------------2-2-2-2-2------------|

Verse:
e|--------------------------------------------------------------------|
B|--------------------------------------------------------------------|
G|-----4----------------4---------------9-6--6-7-6-----9-6---6-7-6----|
D|-7-7---7-7-6-7-7--7-7---7-7-6-7-7-0-0-----9------0-0-----9----------|
A|--------------------------------------------------------------------|
E|--------------------------------------------------------------------|

Pre Chorus
e|------------------------------------------------------------------X2|
B|--------------------------------------------------------------------|
G|----------------------------------------------------------------9---|
D|-----------------------------------------9-7-9-7-9-7-9-7-9-/-11---11|
A|-11-9-11-9-11-9-11-9-12-9-12-9-12-9-12-9----------------------------|
E|--------------------------------------------------------------------|

Chorus X4
Intro X8
Pre-Chorus X2
Chorus X4

Interlude:
e|----------------------9-9-9-9-9-7-7-7-7-7---------------------------|
B|----------------------10101010109-9-9-9-9---------------------------|
G|----------------------9-9-9-9-9-9-9-9-9-9---------------------------|
D|-0-0-0-0-0-2-2-2-2-2--------------------------X4--------------------|
A|-0-0-0-0-0-2-2-2-2-2------------------------------------------------|
E|-0-0-0-0-0-2-2-2-2-2------------------------------------------------|

Bridge:
e|-9-9-9-9--7--5-5-5-5-5-5--------------------------------------------|
B|-10101010-7--5-5-5-5-5-5--------------------------------------------|
G|-9-9-9-9--7--6-6-6-6-6-6--------------------------------------------|
D|--------------------------------------------------------------------|
A|--------------------------------------------------------------------|
E|--------------------------------------------------------------------|





Solo:
e|-------------------12-----------------------------------------------|
B|----------------10----10--------------------------------------------|
G|-------------11-----------------------------------------------------|
D|-4-4-4-4-4----------------4-4-4-4-4—11-11-11-11-11-11-11-9-9--------|
A|-4-4-4-4-4----------------4-4-4-4-4---------------------------------|
E|-4-4-4-4-4----------------4-4-4-4-4---------------------------------|

e|--------------------------------------------------------------------|
B|--------------------------------------------------------------------|
G|--------------------------------------------------------------------|
D|-9-7-9-7-9-7-9-7-9-/-11-4-4-4--9-7----------------------------------|
A|------------------------4-4-4------9-7-9~---------------------------|
E|------------------------4-4-4---------------------------------------|

e|-------------------12-----------------------------------------------|
B|----------------10----10--------------------------------------------|
G|-------------11-----------------------------------------------------|
D|-4-4-4-4-4----------------4-4-4-4-4—11-11-11-11-11-11-11-9-9--------|
A|-4-4-4-4-4----------------4-4-4-4-4---------------------------------|
E|-4-4-4-4-4----------------4-4-4-4-4---------------------------------|

e|--------------------------------------------------------------------|
B|--------------------------------------------------------------------|
G|-11--13--14--16--18-18-18-18-18-/-19---16~--------------------------|
D|--------------------------------------------------------------------|
A|-9---11--12--14--16-16-16-16-16-/-17---14~--------------------------|
E|--------------------------------------------------------------------|

Outro:
e|--------------------------------------------------------------------|
B|--------------------------------------------------------------------|
G|--------------------------------------------------------------------|
D|-----4------7---0--------2------------------------------------------|
A|-----4------7---0--------2------------------------------------------|
E|-----4------7---0--------2------------------------------------------|

e|--------------------------------------------------------------------|
B|--------------------------------------------------------------------|
G|-----2-/-9~-------2-/-9~-------2-/-9~--------2-/-9~-----------------|
D|--------------------------------------------------------------------|
A|--------------------------------------------------------------------|
E|--------------------------------------------------------------------|

| /  slide up
| \  slide down
| h  hammer-on
| p  pull-off
| ~  vibrato
| +  harmonic
| x  Mute note
=======================================================================
            
Hard to play? Try these video lessons and learn fast. | Correct




comments powered by Disqus
↑ Back to top | Tablatures and chords are parodies/interpretations of the original songs. You may use it for private study, scholarship, research or language learning purposes only