» »

/0-9/1997-tabs-29600.html

»

1997, Water's Edge Bass tabs (ver.1)

Artists:  A B C D E F G H I J K L M N O P Q R S T U V W X Y Z # 

Water's Edge Bass tabs (ver.1)

1997 Tabs
Rating:
0/5 (0 votes)
Water's Edge lessons Tabs too difficult? Try these video lessons and learn fast
                -------------------------------------------------------------------------------
-------------------------------------------------------------------------------


Tuning: Drop D

Intro:

00:02
G|---------------------------------------------------------------------------|
D|---------------------------------------------------------------------------|
A|-----------------0-0--0-0-0------------------------------------------------|
D|--4-4--4-4--4-4--------------0-0--0-0--0-0--2-2--2-2-2---------------------|
(x2)

00:14
G|---------------------------------------------------------------------------|
D|---------------------0-0-----0-0-0-0---------------------------------------|
A|--0-0-----0-0-0-0----------------------------------------------------------|
D|---------------------------------------------------------------------------|

Verse 1:

00:25 - "I'm at the Water's Edge and I..."
G|---------------------------------------------------------------------------|
D|----------------------0-0---0-0-9h11p9-7h9p7-0-0-0-0---0-9h11p9-7h9p7------|
A|--0-0-----0-0-0-0----------------------------------------------------------|
D|---------------------------------------------------------------------------|

00:37 - "The shadow's kissing secrets..."
G|---------------------------------------------------------------------------|
D|------------9h11p9-7h9p7-------------9h11p9-7h9p7--0-0---0-9h11p9-7h9p7----|
A|--0-0-----0--------------0-0-0-0---0---------------------------------------|
D|---------------------------------------------------------------------------|

00:45
G|---------------------------------------------------------------------------|
D|--0-0-0-0---0-9h11p9-7h9p7-------------------------------------------------|
A|---------------------------------------------------------------------------|
D|---------------------------------------------------------------------------|

Pre-Chorus:

00:49 - "Troubled boy..."
G|---------------------------------------------------------------------------|
D|---------------------------------------------------------------------------|
A|--------------------------5--5--5--0--0--0--0--0---------------------------|
D|--4--4--4--4--4--4--4--4---------------------------------------------------|

00:54 - "And then say 'good-night', forever..."
G|---------------------------------------------------------------------------|
D|---------------------------------------------------------------------------|
A|--------------------------5---4---2----------------------------------------|
D|--4--4--4--4--4--4--4--4---------------------------------------------------|

1:00 - "But little girl, Im not feeling well..."
G|---------------------------------------------------------------------------|
D|---------------------------------------------------------------------------|
A|--------------------------5--5--5--0--0--0--0--0---------------------------|
D|--4--4--4--4--4--4--4--4---------------------------------------------------|

1:06 - "These nights are long and numb..."
G|---------------------------------------------------------------------------|
D|---------------------------------------------------------------------------|
A|--------------------------5--4---7-----------------------------------------|
D|--4--4--4--4--4--4--4--4---------------------------------------------------|

Chorus:
1:12 - "Who's sending letters through the mail..."
G|---------------------------------------------------------------------------|
D|---------------------------------------------------------------------------|
A|-----------------0-0--0-0-0------------------------------------------------|
D|--4-4--4-4--4-4--------------0-0--0-0--0-0--2-2--2-2-2---------------------|
(x4)
_____________________________________________________________________________
1:35 - "Carolina, Carolina..."
G|---------------------------------------------------------------------------|
D|--------------9h11p9-7h9p7-------------------------------------------------|
A|--0--0--0--0---------------------------------------------------------------|
D|---------------------------------------------------------------------------|
(x2)

1:41 - "Carolina, Carolina..."
G|---------------------------------------------------------------------------|
D|--0--0--0--0--9h11p9-7h9p7-------------------------------------------------|
A|---------------------------------------------------------------------------|
D|---------------------------------------------------------------------------|
(x2)
_____________________________________________________________________________

Verse 2:

1:47 - "Now that I have you..."
G|---------------------------------------------------------------------------|
D|------------9h11p9-7h9p7-------------9h11p9-7h9p7--0-0---0-9h11p9-7h9p7----|
A|--0-0-----0--------------0-0-0-0---0---------------------------------------|
D|---------------------------------------------------------------------------|

1:55
G|---------------------------------------------------------------------------|
D|--0-0-0-0---0-9h11p9-7h9p7-------------------------------------------------|
A|---------------------------------------------------------------------------|
D|---------------------------------------------------------------------------|

[PreChorus]

[Chorus]

Bridge Part 1:

2:45 - "All I want..."
G|---------------------------------------------------------------------------|
D|--0-------2--2-2--2-2-2----------------------------------------------------|
A|------4------------------2--0--2--2-2--2-2-2-------------------------------|
D|---------------------------------------------------------------------------|

2:51 - "All I need..."
G|---------------------------------------------------------------------------|
D|--0-------2--2-2--2-2-2----------------------------------------------------|
A|------4-------------------2---0---2---4--2--0------------------------------|
D|---------------------------------------------------------------------------|

(repeat)

3:08 - "DoDoDoDo-Do-Do!..."
G|---------------------------------------------------------------------------|
D|---------------------------------------------------------------------------|
A|--4-4-4-4--2--0------------------------------------------------------------|
D|---------------------------------------------------------------------------|
(x4)

Bridge Part 2:

3:20
G|---------------------------------------------------------------------------|
D|---------------------------------------------------------------------------|
A|-----------------0-0--0-0-0------------------------------------------------|
D|--4-4--4-4--4-4--------------0-0--0-0--0-0--2-2--2-2-2---------------------|
(x4)


Outro:
3:43 - "Who's sending letters through the mail..."
G|---------------------------------------------------------------------------|
D|---------------------------------------------------------------------------|
A|---------0---------------------0----------------------0--------------------|
D|--4----------0------2---4----------0------2---4-----------0----------------|


G|---------------------------------------------------------------------------|
D|---------------------------------------------------------------------------|
A|--------------0------------------------------------------------------------|
D|--2---4-----------0--------------------------------------------------------|


| /  slide up
| \  slide down
| h  hammer-on
| p  pull-off
| ~  vibrato
| +  harmonic
| x  Mute note
===============================================================================
            

comments powered by Disqus
↑ Back to top | 1997 Bass for Water's Edge. Lyrics for acoustic guitar and electric guitar. Tablatures and chords are parodies/interpretations of the original songs. You may use it for private study, scholarship, research or language learning purposes only