» »

/0-9/1997-tabs-29600.html

»

1997, Grace Chords (ver.1)

Artists:  A B C D E F G H I J K L M N O P Q R S T U V W X Y Z # 

Grace Chords (ver.1)

1997 Tabs
 Rating:
4.3/5 (6 votes)
Grace lessons Tabs too difficult? Try these video lessons and learn fast
                1997
A Better View Of The Rising Moon
2007

Key: D

Tuning: Standard EADGBe

Chords used:
D -   xx0232
A -   x02220
Bm -  x24432
G -   320033
F#m - 244222
Em -  022000
E -   022100
B -   x24442
C#m - x46654
Abm - 466444


Verse 1:
D               G
Tell me Tell me why
     D      G
The snow is white
    Bm      F#m
But I can't wash
      G
it all away (away)
    D          G
You left last spring
    D                G
You went to find something
          Bm
You could see
          F#m    G
But could never speak


Refrain 1:
Em
  West winds will
G         D  A
wash you away
Em
  Love will lift you
G
off the ground
      A
Don't be afraid


Chorus 1:
D
Grace will fly
    G         Bm--
you home again
          Em
My hearts crying
      A
for a change
        F#m
For the road to bend
      Bm
To be home again
    D
And grace is where
  G             Bm
I end and you begin
   Em      A
My love my friend


Verse 2:
       D      G
It's a bitter night
   D
My eyes have
       G
seen no light
    Bm
The sunset was the
F#m             G
last thing on my mind
  D         G
I feel your hands
    D        G
You shake my face
    Bm
And tell me
     F#m       G
It's okay to believe


Refrain 2:
Em
  West wings will
G         D  A
wash you away
Em
  Love will lift you
G
off the ground
      A
Don't be afraid


(Repeat Chorus 1)


Interlude: Beat became slower

G--A--G--F#m--G--A--Bm--A--


Lead:

             G                    A                    G
e|---------------------|-------0-------------|---------------------|
B|-------3---------2---|-----------------3---|-------3---------3---|
G|-----2---3-----2---2-|-----2---2-----2---2-|-----2---3-----2---3-|
D|---0---------0-------|---2---------2-------|---0---------0-------|
A|---------------------|-0---------0---------|---------------------|
E|-3---------3---------|---------------------|-3---------3---------|

          F#m                     G                    A
e|---------------------|---------------------|-------0-------------|
B|-------2---------2---|-------3---------2---|-----------------3---|
G|-----2---2-----2---2-|-----2---2-----2---2-|-----2---2-----2---3-|
D|---0---------0-------|---0---------0-------|---2---------2-------|
A|---------------------|---------------------|-0---------0---------|
E|-2---------2---------|-3---------3---------|---------------------|

          Bm                  A
e|---------------------|-------------|
B|-------3---------3---|-------------|
G|-----2---2-----2---2-|-2-2-2-2-2-2-|
D|---0---------0-------|-2-2-2-2-2-2-|
A|-2---------2---------|-0-0-0-0-0-0-|
E|---------------------|-Distortion--|


Bridge:
G    A
Grace is all
 G        F#m
around you
          G
The sky is white
    A
I'm ready to
   Bm      A
be baptized

G A
   You're all
 G
around me
F#m      G       A
Yea All around me
    Bm     A
Yea yea yea


Chorus 3:
D
Grace will fly
    G         Bm
you home again
            Em
Where your standing
       A
in the doorway
        F#m
Singing songs to
      Bm
my old poetry


Chorus 4: Modulate from D to E
E
Grace will fly
    A         C#m--
you home again
          F#m
My hearts crying
      B
for a change
         Abm
For this tainted road
      C#m
To be home again
               F#m
That's why I'm willing
           B
to fall in love
             Abm   C#m
that you can be my way
    B       (hold) E(hold)
and save my life
            
Submit corrections

comments powered by Disqus
↑ Back to top | 1997 Chords for Grace. Lyrics for acoustic guitar and electric guitar. Tablatures and chords are parodies/interpretations of the original songs. You may use it for private study, scholarship, research or language learning purposes only